Song name
# A B C D E F G H I J K L M N O P Q R S T U V W X Y Z

Fall Out Boy - Growing Up Acoustic tab

Fall Out Boy-Growing Up (Acoustic)


This is my first ever tab so I don't think that it will be that good and the rhythms 
that good but any comments would be a help, Thx.


Intro
|---0---------0---------1---------0-0-0-0-3-3-3-3--*1*---|
|---1-1-1-0---0-1-1-0---1-1-1-0---1-1-1-1-3-3-3-3--*1*---|
|---0-------0-1-------0-2-------0-2-2-2-2-0-0-0-0--*2*---|
|---2---------2---------3---------2-2-2-2-0-0-0-0--*3*---|
|---3---------2---------3---------0-0-0-0-2-2-2-2--*3*---|
|---0---------0---------1---------0-0-0-0-3-3-3-3--*1*---| x2 *Second time round only


Verse
|---0-0--0-0--0-0--0-0--1-1--1-1--1-1--1-1--0-0--0-0--3-3--3-3--0-0--0-0--0-0--0-0---|
|---1-1--1-1--1-1--1-1--1-1--1-1--1-1--1-1--1-1--1-1--3-3--3-3--1-1--1-1--1-1--1-1---|
|---0-0--0-0--0-0--0-0--2-2--2-2--2-2--2-2--2-2--2-2--0-0--0-0--0-0--0-0--0-0--0-0---|
|---2-2--2-2--2-2--2-2--3-3--3-3--3-3--3-3--2-2--2-2--0-0--0-0--2-2--2-2--2-2--2-2---|
|---3-3--3-3--3-3--3-3--3-3--3-3--3-3--3-3--0-0--0-0--2-2--2-2--3-3--3-3--3-3--3-3---|
|---0-0--0-0--0-0--0-0--1-1--1-1--1-1--1-1--0-0--0-0--3-3--3-3--0-0--0-0--0-0--0-0---| x4


Chorus
|---0-0--0-0--3-3--3-3--0-0--0-0--1-1--1-1---|
|---1-1--1-1--3-3--3-3--1-1--1-1--1-1--1-1---|
|---0-0--0-0--0-0--0-0--2-2--2-2--2-2--2-2---|
|---2-2--2-2--0-0--0-0--2-2--2-2--3-3--3-3---|
|---3-3--3-3--2-2--2-2--0-0--0-0--3-3--3-3---|
|---0-0--0-0--3-3--3-3--0-0--0-0--1-1--1-1---| x4


Interlude
|---0---------0---------1---------0-0-0-0-3-3-3-3--*1*---|
|---1-1-1-0---0-1-1-0---1-1-1-0---1-1-1-1-3-3-3-3--*1*---|
|---0-------0-1-------0-2-------0-2-2-2-2-0-0-0-0--*2*---|
|---2---------2---------3---------2-2-2-2-0-0-0-0--*3*---|
|---3---------2---------3---------0-0-0-0-2-2-2-2--*3*---|
|---0---------0---------1---------0-0-0-0-3-3-3-3--*1*---| (play the single notes faster 
stop the chords from ringing)


Bridge
|---0---------2---------0---------1---------|
|---1-1-1-0---2-1-1-0---0-1-1-0---1-1-1-0---|
|---0-------0-0-------0-1-------0-2-------0-|
|---2---------0---------2---------3---------|
|---3---------2---------2---------3---------|
|---0---------3---------0---------1---------|(play the single notes faster and stop the 
from ringing)


Order

Intro-x1
Verse-x1
Chorus-x1
Interlude-x2
Verse-x1
Chorus-x1
Bridge-x4
Chorus-Until End


Lyrics
I dried my eyes, now I crust them with sleep
Ill crust them over
She begged me dont hate me
She spun me a story
Where winning looks like loosing
And Im winning every time
So thread spools sweetie, get ready
Until my silk is sold

Growing up
Growing up
Growing up
Yeah
Ill buy myself a new
Yeah
Ill buy myself a new

Ive dried my eyes, now its rushmore
Im deep with futures like chicago
No Glenview never meant a thing to me
No She never meant a thing to me
Except for putting idealists in a body bag
Forget it
Ill go out tonight to piss on her doorstep
And listen to the misfits where eagels dare to swallow whole

Up
Growing up
Growing up

Whoa-oh-oh
I guess Im my own better half
Whoa-oh-oh
I guess Im my own better half
Whoa, oh
I guess Im on my own
Yeah, yeah
I guess Im on my own
Yeah
I guess Im on my own
Yeah, yeah, yeah
I guess Im on my own

Thx, Please Rate and give any advice for further tabs.
Tap to rate this tab
# A B C D E F G H I J K L M N O P Q R S T U V W X Y Z