Guitaretab - guitar tabs
Song name
# A B C D E F G H I J K L M N O P Q R S T U V W X Y Z

Fall Out Boy - Catch Me If You Can tab

-------------------------------------------------------------------------------
   Catch Me if You Can/Proclamation of Emaciation  
by Fall out boy
-------------------------------------------------------------------------------
Tabbed by: Jordan B.
Email: buddyb257@hotmail.com

Tuning: Standard Tuning 

e|--------66-6-6-----------66-6-6--------------------------------------------|
B|--------77-6-7-----------77-6-7--------------------------------------------|
G|--------88-6-8-----------88-6-8--------------------------------------------| 2x
D|---------------------------------------------------------------------------|
A|-6-8-9\--------11-12-13\---------------------------------------------------|
E|-4-6-7\---------9-10-11\---------------------------------------------------|

e|---------------------------------------------------------------------------|
B|---------------------------------------------------------------------------|
G|---------------------------------------------------------------------------| 2x
D|---------------------------------------------------------------------------|
A|-6-8-9\----11-12-13\-------------------------------------------------------|
E|-4-6-7\-----9-10-11\-------------------------------------------------------|

e|--------66-6-6-----------66-6-6--------------------------------------------|
B|--------77-6-7-----------77-6-7--------------------------------------------|
G|--------88-6-8-----------88-6-8--------------------------------------------| 2x
D|---------------------------------------------------------------------------|
A|-6-8-9\--------11-12-13\---------------------------------------------------|
E|-4-6-7\---------9-10-11\---------------------------------------------------|

e|---------------------------------------------------------------------------|
B|---------------------------------------------------------------------------|
G|--------CLEAN-You can figure out the rhythm--------------------------------| 2x
D|---------------------------------------------------------------------------|
A|-11(8x)-13(4x)-11(4x)-9(16x)-----------------------------------------------|
E|--9-----11-----9------7----------------------------------------------------|

e|-66--------66----66--------------------------------------------------------|
B|-77--------77----77--------------------------------------------------------|
G|-88664466--88----88-----------------------6x------6x-----------------------| 2x
D|-88664466--88-8x-88-8x--6688991111x--4-4--6x-4-4-6x-----------------------|
A|-66442244--66-8x-66-8x--6688991111x--4-4--4x-4-4-4x-----------------------|
E|--------------6x----6x--4466779--9x--2-2-----2-2---------------------------|
[ Tab from: http://www.guitaretab.com/f/fall-out-boy/117113.html ]
e|--------66-6-6-----------66-6-6--------------------------------------------|
B|--------77-6-7-----------77-6-7--------------------------------------------|
G|--------88-6-8-----------88-6-8--------------------------------------------| 2x
D|---------------------------------------------------------------------------|
A|-6-8-9\--------11-12-13\---------------------------------------------------|
E|-4-6-7\---------9-10-11\---------------------------------------------------|


e|---------------------------------------------------------------------------|
B|---------------------------------------------------------------------------|
G|---------------------------------------------------------------------------| 2x
D|---------------------------------------------------------------------------|
A|-6-8-9\----11-12-13\-------------------------------------------------------|
E|-4-6-7\-----9-10-11\-------------------------------------------------------|

e|--------66-6-6-----------66-6-6--------------------------------------------|
B|--------77-6-7-----------77-6-7--------------------------------------------|
G|--------88-6-8-----------88-6-8--------------------------------------------| 4x
D|---------------------------------------------------------------------------|
A|-6-8-9\--------11-12-13\---------------------------------------------------|
E|-4-6-7\---------9-10-11\---------------------------------------------------|

e|---------------------------------------------------------------------------|
B|---------------------------------------------------------------------------|
G|--------CLEAN-You can figure out the rhythm--------------------------------| 2x
D|---------------------------------------------------------------------------|
A|-11(8x)-13(4x)-11(4x)-9(16x)-----------------------------------------------|
E|--9-----11-----9------7----------------------------------------------------|

e|-66--------66----66--------------------------------------------------------|
B|-77--------77----77--------------------------------------------------------|
G|-88664466--88----88-----------------------6x------6x-----------------------| 2x
D|-88664466--88-8x-88-8x--6688991111x--4-4--6x-4-4-6x-----------------------|
A|-66442244--66-8x-66-8x--6688991111x--4-4--4x-4-4-4x-----------------------|
E|--------------6x----6x--4466779--9x--2-2-----2-2---------------------------|


e|--------66-6-6-----------66-6-6--------------------------------------------|
B|--------77-6-7-----------77-6-7--------------------------------------------|
G|--------88-6-8-----------88-6-8----------------repeat until song ends------| 
D|---------------------------------------------------------------------------|
A|-6-8-9\--------11-12-13\---------------------------------------------------|
E|-4-6-7\---------9-10-11\---------------------------------------------------|







| /  slide up
| \  slide down
| h  hammer-on
| p  pull-off
| ~  vibrato
| +  harmonic
| x  Mute note
===============================================================================

Related for Catch Me If You Can tab