Song name
# A B C D E F G H I J K L M N O P Q R S T U V W X Y Z

Fall Out Boy - Start Today tab

yeh this is another tab.. um yeh the tunings  normal and yeah enjoy
Intro (Have Delay on for the echo)


e|---x--xx-x--x-xx-x--x-xx-x--x
b|---x--xx-x--x-xx-x--x-xx-x--x
g|---6--66-6--6-66-6--6-66-6--6
d|---6--66-6--6-66-6--6-66-6--6   x 2 (Let last note echo)
a|---4--44-4--4-44-4--4-44-4--4
a|--(4)-44-4--4-44-4--4-44-4--4

Verse 1

e|--x-xx-x/x-xx-x--x-xx-xx
b|--x-xx-x/x-xx-x--5-55-55
g|--3-33-3/6-66-6--6-66-66   x 4 
a|--4-44-4/7-77-7--4-44-44
e|--2-22-2/5-55-5--x-xx-xx

Pre Chorus (This time I try for the first time..)

e|--xxxx-x/xxxx-|--xxxx-x/xxxx-|--xxxx-x/xxxx-xxxxxxxx-xxxx-|
b|--xxxx-x/xxxx-|--xxxx-x/xxxx-|--xxxx-x/xxxx-xxxxxxxx-xxxx-|
g|--4444-4/6666-|--4444-6/xxxx-|--4444-4/6666-xxxxxxxx-4444-|
d|--4444-4/6666-|--4444-6/7777-|--4444-4/6666-77777777-4444-|
a|--2222-2/4444-|--2222-4/7777-|--2222-2/4444-77777777-2222-|
e|--2222-2/4444-|--2222-4/5555-|--2222-2/4444-55555555-2222-|


Verse 2 (same as verse 1)

e|--x-xx-x/x-xx-x--x-xx-xx
b|--x-xx-x/x-xx-x--5-55-55
g|--3-33-3/6-66-6--6-66-66   x 5 
a|--4-44-4/7-77-7--4-44-44
e|--2-22-2/5-55-5--x-xx-xx

(Pre Chorus/Chorus )

e|--xxxx-x/xxxx-|--xxxx-x/xxxx-|--xxxx-x/xxxx-xxxxxxxx-xxxx-|
b|--xxxx-x/xxxx-|--xxxx-x/xxxx-|--xxxx-x/xxxx-xxxxxxxx-xxxx-|
g|--4444-4/6666-|--4444-6/xxxx-|--4444-4/6666-xxxxxxxx-4444-|
d|--4444-4/6666-|--4444-6/7777-|--4444-4/6666-77777777-4444-|
a|--2222-2/4444-|--2222-4/7777-|--2222-2/4444-77777777-2222-|
e|--2222-2/4444-|--2222-4/5555-|--2222-2/4444-55555555-2222-|

Interlude Part

e|--xxxx-xx-xx-xx-xx
b|--xxxx-xx-xx-xx-xx
g|--xxxx-xx-xx-xx-xx
d|--4444-77-22-22-22 x 4 
a|--4444-77-22-22-22
e|--2222-55-00-00-00

Interlude Part Guitar 2

e|------------------------------------------------------------------------|
b|------------------------------------------------------------------------|
g|------------------------------------------------------------------------|
d|------------------------------------------------------------------------|
a|-------------------4/5\4--------------------12\10-\\\\4/5\4--------4/5\4|
e|------------------------------------------------------------------------|

Solo

e|--------------------------------------------|
b|--------------------------------------------|
g|--88888h9\88888-9868-98642-2222-4444-6666---|
d|--------------------------------------------|
a|--------------------------------------------|
e|--------------------------------------------|

Outro

e|--x-xx-x--x--x--|
b|--x-xx-x--x--x--|
g|--x-xx-x--x--x--|
d|--4-44-6--6--2--|
a|--4-44-6--6--2--|
e|--2-22-4-44--0--|


one of my first tabs so soz if its not good.. anyway enjoy

Tap to rate this tab
# A B C D E F G H I J K L M N O P Q R S T U V W X Y Z