Song name
# A B C D E F G H I J K L M N O P Q R S T U V W X Y Z

Fall Out Boy - Thriller tab

Highlighted       Show chord diagrams
Fall Out Boy
Thriller
Infinity On High
2007
Submitted by: paramore_fans@yahoo.com



Tuning: Drop D both guitars


Chords used: Drop D only
D5 -  000xxx
A5 -  777xxx
B5 -  999xxx
G5 -  555xxx
F#5 - 444xxx


Intro:
Jay Z: Yeah, what you critics said would never happen,
we dedicate this album to anybody who people said couldn't make it.
To the fans who held us down
'til everybody came around. Welcome, its here!

Part 1:
Joe:
e|---5-------------|---5-------------|---5-------------|---5-------------|
B|-------5---5---5-|-------5---5---5-|-------5---5---5-|-------5---5---5-|
G|-7---7---7---7---|-6---6---6---6---|-----------------|-----------------|
D|-----------------|-----------------|-5---5---5---5---|-7---7---7---7---| (x2)
A|-----------------|-----------------|-----------------|-----------------|
D|-----------------|-----------------|-----------------|-----------------|
         x2                 x2                x2                x2

Part 2:

Patrick: Fast Palm mute
e|-----------------------|
B|-----------------------|
G|-----------------------|
D|-0-0-0-0-0-0--| (x4)
A|-0-0-0-0-0-0--|
D|-0-0-0-0-0-0--|

Joe:
e|--------------------------------------|
B|--------------------------------------|
G|-7--16\14--12\11\9--7--12\11--12\11\9-|
D|-x---x\-x---x\-x\x--x---x\-x---x\-x\x-| (x2)
A|-5--14\12--10\-9\7--5--10\-9--10\-9\7-|
D|--------------------------------------|


Verse 1: Do Joe's intro part 1 pattern
D5
Last--- summer we took threes across the board
But by fall--- we were a cover story Now in stores


Patrick:
e|-------|
B|-------|
G|-4/6/7-
D|-x/x/x-
A|-2/4/5-
D|-------


Refrain 1:
B5      A5     G5            D5
Make us poster boys for your scene
    G5         D5          G5
But we are not making an acceptance speech
  B5               A5                G5         D5
I found the safest place to keep all our old mistakes
      G5(hold)
Every dot com's, refreshing for a journal updates


Chorus:
   D5            B5
So long live the car-crash hearts
F#5                       A5            G5
Cry on the couch, all the poets come to life
B5        A5(hold)
Fix me in 45
(Repeat)


Interlude:

Patrick: Fast Palm mute
e|-----------------------|
B|-----------------------|
G|-----------------------|
D|-0-0-0-0-0-0--| (x4)
A|-0-0-0-0-0-0--|
D|-0-0-0-0-0-0--|


Verse 2: Do Joe's Intro part 1 pattern
      D5
I can take--- your problems away With a nod and a wave---
of my hand--- 'Cause that's just the kind of boy that I am


Refrain 2:
    B5   A5              G5          D5
The only thing I haven't done yet is die
         G5        D5              G5
And it's me and my plus one at the afterlife
           B5               A5
Crowds are won and lost and won again
    G5         D5           G5(hold)
But our hearts beat for the die------hards(Yell)-----


(Repeat Chorus)


Outro:
So long live the car-crash hearts
(repeat x3)
Cry on the couch, all the poets come to life
Fix me in 45


Jay Z: Yung, FOB
Pete: Lets go!
Tap to rate this tab
# A B C D E F G H I J K L M N O P Q R S T U V W X Y Z