Song name
# A B C D E F G H I J K L M N O P Q R S T U V W X Y Z

Fall Out Boy - Coffees For Closers tab

-------------------------------------------------------------------------------
			     (Coffee's For Closers) - Fall Out Boy
					       off
					  Folie a Deux
-------------------------------------------------------------------------------
Tabbed by: Kevin Heiland
Email: kevin.heiland@gmail.com
Tuning: Standard

There are parts where it's hard to tell whether or not octaves or power chords are being 
so if you have thing that you

think should be changed, tell me why and I'll do it. Have fun with this one folks. Rate 
comment!

Intro: Figure out strumming pattern, it's easy eigth notes.

e|-----------------------|
B|-----------------------|
G|-13-11-9---9--16--14---|
D|-x--x--x---x--x---x----|
A|-11-9--7---7--14--12---|
E|-----------------------|

Verse 1: "I, I, I can't explain a thing..."
e|------------------------------------------|
B|------------------------------------------|
G|--13--16----13-11-9-16-14-13-11-9---------|
D|--x---x-----x--x--x-x--x--x--x--x---------|
A|--11--14----11-9--7-14-12-11-9--7---------|
E|------------------------------------------|

Pre-Chorus: "And oh baby, when they made me..."

e|---------------------------------------------------------------------------|
B|---------------------------------------------------------------------------|
G|-2-222222-----------6-666666-4-444444-2-222222-----------9-9-8-8-6~--------|
D|-2-222222-4-444444--6-666666-4-444444-2-222222-4-444444--x-x-x-x-x---------|
A|-0-000000-4-444444--4-444444-2-222222-0-000000-4-444444--7-7-6-6-4~--------|
E|----------2-222222-----------------------------2-222222--------------------|

Breakdown: "Fly your cameras in the air..."

e|---------------------------|
B|---------------------------|
G|-------2~--4~--4-----------|
D|--2~---2~--4~--4-----------|
A|--2~---0~--2~--2-----------|
E|--0~-----------------------|

Chorus: "I will never believe in anything again..."

e|---------------------------------------------------------------------------|
B|---------------------------------------------------------------------------|
G|-66666666-22222222-9-99-8-88-6-66-4-44---2222222-44444444-66666666---------|
D|-66666666-22222222-9-99-8-88-6-66-4-44---2222222-44444444-66666666---------|
A|-44444444-00000000-7-77-6-66-4-44-2-22---0000000-22222222-44444444---------|
E|---------------------------------------------------------------------------|

Post Chorus: "Change will come, oh, change will come..."

e|------------------------------------------------|
B|------------------------------------------------|
G|--2--4--6---2--4--6--6-4-22222222-44444444------|
D|--2--4--6---2--4--6--6-4-22222222-44444444------|
A|--0--2--4---0--2--4--4-2-00000000-22222222------|
E|------------------------------------------------|

Intro x1
Verse x1
Pre-chorus x1
Breakdown x1
Chorus x1
Post Chorus x1

"We will never believe again..."

e|--------------------------------------------------|
B|--------------------------------------------------|
G|-2--------6--4---4-6-9--2--------6--4--4-6-9------|
D|-x--4--9--x--x---x-x-x--x--4--9--x--x--x-x-x------|
A|-0--x--x--4--2---2-4-7--0--x--x--4--2--2-4-7------|
E|----2--7-------------------2--7-------------------|

"I will never believe in anything again..."

e|--------------------------------------------------------------|
B|--------------------------------------------------------------|
G|---------6666666666666666-------------------------------------|
D|--2~-----6666666666666666-------------------------------------|
A|--2~-----4444444444444444-------------------------------------|
E|--0~-----........---------------------------------------------|

Post Chorus x1
Chorus x1
Post Chorus x1

"We will never believe again..."

e|--------------------------------------------------|
B|--------------------------------------------------|
G|-2--------6--4---4-6-9--2--------6--4--4-6-9------|
D|-x--4--9--x--x---x-x-x--x--4--9--x--x--x-x-x------|
A|-0--x--x--4--2---2-4-7--0--x--x--4--2--2-4-7------|
E|----2--7-------------------2--7-------------------|

Repeat until end.


| .  palm mute
| /  slide up
| \  slide down
| h  hammer-on
| p  pull-off
| ~  vibrato
| +  harmonic
| x  Mute note
===============================================================================
Tap to rate this tab
# A B C D E F G H I J K L M N O P Q R S T U V W X Y Z