Song name
# A B C D E F G H I J K L M N O P Q R S T U V W X Y Z

Fall Out Boy - Wams tab

 -------------------------------------------------------------------------------
			                           w.a.m.s. - Fall Out Boy
-------------------------------------------------------------------------------
Tabbed by: Nipokane27
Email: Blacknipokane27@gmail.com

Tuning:DADGBe


           intro-joe/lead 0:01
e|---------------------------------------------------------------------------|
B|---------------------------------------------------------------------------|
G|--s--s-------11----------11/10---------------------------------------------|
D|--s--s--------------x4-----------------------------------------------------| x4
A|--s--s-------9-----------9/8-----------------------------------------------|
D|--s--s---------------------------------------------------------------------|
            intro-patrick/rhythmn
e|--------------------------------------------------------------------------------|
B|--------------------------------------------------------------------------------|
G|------------------7-7--7-------7---7--77--------------7-7--7--------------------|
D|-------------4-4--7-7--7--4-4--7---7--77----x3---4-4--7-7--7----7---6---5---4---|
A|-------------4-4--5-5--5--4-4--5---5--55---------4-4--5-5--5--------------------|
D|-------------4-4----------4-4--------------------4-4----------7---6---5---4-----|
              x x          x x                    x x
verse 1-rest/bass

pre-chorus-joe 0:35
e|---------------------------------------------------------------------------|
B|---------------------------------------------------------------------------|
G|-9------9/10-7------7/12------9------9/10-7------6-------------------------|
D|-x--x6--x-x--x--x6--x-x---x2--x--x6--x-x--x--x8--x--x14-------000----------|
A|-7------7/8--5------5/10------7------7/8--5------4------------000----------|
D|---------------------------------------------------------2/8--000----------|
                                                               xxx
   pre-chorus-patrick
e|---------------------------------------------------------------------------|
B|---------------------------------------------------------------------------|
G|-9-----------7----------------9-----------7------6-------------------------|
D|-9--x8-------7--x8--------x2--9--x8-------7--x8--6--x14-------000----------|
A|-7-----------5----------------7-----------5------4------------000----------|
D|---------------------------------------------------------2/9--000----------|
                                                               xxx


chorus-joe (triplets)
e|----------11-11-11-11-13-13-13-13-13-13-13-13----------11-11-11-11-13-13-13-13-13-13-13-13--|
B|-8-8-8-8---------------------------------------8-8-8-8--------------------------------------|
G|--------------------------------------------------------------------------------------------|
D|--------------------------------------------------------------------------------------------|
A|--------------------------------------------------------------------------------------------|
D|--------------------------------------------------------------------------------------------|

chorus-joe (continued)(non-triplets)1:04

e|-11-12-13-12-11--------12b(1/2)---12b(1/2)---------------------------------|
B|-----------------13--------------------------------------------------------|x2
G|---------------------------------------------------------------------------|
D|---------------------------------------------------------------------------|
A|---------------------------------------------------------------------------|
D|---------------------------------------------------------------------------|
chorus-patrick
e|--------------------------------------------------------------------------------|
B|--------------------------------------------------------------------------------|
G|--------------7-7-7-7------9-9-9-9---------------------------7-----9------------|
D|-4-4-4-4------7-7-7-7--x2--9-9-9-9--x3--10-10---4-4-4-4------7-x8--9-x8--10--x8-|
A|-4-4-4-4--x2--5-5-5-5------7-7-7-7------8-8-----4-4-4-4--x2--5-----7------8-----|
D|-4-4-4-4----------------------------------------4-4-4-4-------------------------|
chorus-patrick (continued)
e|---------------------------------------------------------------------------------|
B|---------------------------------------------------------------------------------|
G|-------------7-----9-------------------------7-7-7-7-----------------------------|
D|-4-4-4-4-----7-x8--9-x8--10------4-4-4-4-----7-7-7-7-x2-7-7-7-7----6-6-6-6-------|
A|-4-4-4-4-x2--5-----7-----10-x8---4-4-4-4-x2--5-5-5-5----7-7-7-7-x2-6-6-6-6-x2----|
D|-4-4-4-4-----------------10------4-4-4-4----------------7-7-7-7----6-6-6-6-------|

verse 2,same as intro,
repeat pre-chorus, then chorus and go to the bridge when you're done with chorus

Bridge-both guitars
e|---------------------------------------------------------------------------|
B|--------------2--3---------------------------5------------------1--3-------|
G|--------3------------x4-----------4-------------x8--------3-----------x4---|
D|--3------------------------3-----------3------------3----------------------|
A|---------------------------------------------------------------------------|
D|---------------------------------------------------------------------------|

Bridge(continued)
e|---------------------------------------------------------------------------|
B|-------------------------------------------1--3----------------------------|
G|-------3-----------3-----------------3--------------x10--------------------|
D|-3----------3------------x4---3--------------------------------------------|
A|---------------------------------------------------------------------------|
D|---------------------------------------------------------------------------|

 When you're done with the bridge, repeat the chorus then play the intro

again and you're done! email if you have any questions and remember,

Patrick Stump and Synyster Gates are the best! Enjoy! :P

| / = slide up   b=bend
| \ = slide down ()=how far to bend
| h = hammer-on
| p = pull-off
| ~ = vibrato
| + = harmonic
| x = Mute note  s=scratch
===============================================================================
Tap to rate this tab
# A B C D E F G H I J K L M N O P Q R S T U V W X Y Z