Song name
# A B C D E F G H I J K L M N O P Q R S T U V W X Y Z

Fall Out Boy - West Coast Smoker tab

Intro (0:01-0:08)
e|------------------------------------|
B|-5-5\3-5--3-5-7-8-8-8-10-8-5--555---|
G|-0-0\0-0--0-0-0-0-0-0--0-0-0--000---|X2
D|------------------------------------|
A|------------------------------------|
D|------------------------------------|
Pm                              ...

Verse 1 (0:08-0:40)
e|---------------------|----------------------|
B|---------------------|--------------------X2|
G|-------------------X2|-----5--------5-4-----|
D|-----5--------5-4----|-7-7----7-7-7---------|
A|-7-7----7-7-7--------|----------------------|
D|---------------------|----------------------|

Chours (0:40-0:56)
e|-----------------------|
B|-----------------------|
G|-----------------------|
D|-2222-5555-4444-3333---|X4
A|-2222-5555-4444-3333---|
D|-2222-5555-4444-3333---|

Intro (0:56-1:04)
e|------------------------------------|
B|-5-5\3-5--3-5-7-8-8-8-10-8-5--555---|
G|-0-0\0-0--0-0-0-0-0-0--0-0-0--000---|X2
D|------------------------------------|
A|------------------------------------|
D|------------------------------------|
Pm                              ...

Verse 2 (1:04-1:36)
e|---------------------|----------------------|
B|-------------------X2|--------------------X2|
G|---------------------|-----5--------5-4-----|
D|-----5--------5-4----|-7-7----7-7-7---------|
A|-7-7----7-7-7--------|----------------------|
D|---------------------|----------------------|

Chours 2 (1:38-1:52)
e|------------------|-----------------------|
B|----------------X1|---------------------X3|
G|------------------|-----------------------|
D|-5555-4444-3333---|-2222-5555-4444-3333---|
A|-5555-4444-3333---|-2222-5555-4444-3333---|
D|-5555-4444-3333---|-2222-5555-4444-3333---|

Bridge (2:01-2:16)
e|----------------------------------------XXX------|
B|--------------------------------8-------XXX------|
G|---------------------------9~-9---9~-9~-XXX--9*--|
D|-2---5-5--4-4-3~------5-7---------------XXX------|
A|-2---5-5--4-4-3~--5-7-------------------XXX------|
D|-2---5-5--4-4-3~------------------------XXX------|
pm                                        ...

Chours 3 (2:16-2:42)
e|------------------------|
B|---------------------X6-|
G|------------------------|
D|-2222-5555-4444-3333\---|
A|-2222-5555-4444-3333\---|
D|-2222-5555-4444-3333\---|

End :D
Tap to rate this tab
# A B C D E F G H I J K L M N O P Q R S T U V W X Y Z