Song name
# A B C D E F G H I J K L M N O P Q R S T U V W X Y Z

Fall Out Boy - Pavlove tab

Standard Tuning

Tabbed by Blassassin

Pavlove

This is very rough. I just got tired of waiting for someone else to tab it for me so I 
I'd give it a go

-------------
Rhythm Guitar (Good ol' Patrick)
-------------


Intro (0:11)
e|---------------------------------|
B|---------------------------------|
G|------------------------------7--|
D|--5-5-5-5-2-2-7-9~--9-9-9-7-7-7--| x 2
A|--5-5-5-5-2-2-7-9~--9-9-9-7-7-5--|
E|--3-3-3-3-0-0-5-7~--7-7-7-5-5----|


Verse (0:24) Something make my chest stir...
e|----------------------------------------|
B|----------------------------------------|
G|--4-4-4---4--4---7-7-7---7-7-7--6b7b6---|
D|--5-5-5---2--2---9-9-9---9-9-9----------| x 4
A|--5-5-5---2--2---9-9-9---9-9-9----------|
E|--3-3-3---0--0---7-7-7---7-7-7----------|


Prechorus (0:46) The drums are four on the floor...
e|-----------------------------------|
B|-----------------------------------|
G|-----------------------------------|
D|--7-7-7-7-9-9-9-9-2-2-4-4-7-7-7-7--|
A|--7-7-7-7-9-9-9-9-2-2-4-4-7-7-7-7--|
E|--5-5-5-5-7-7-7-7-0-0-2-2-5-5-5-5--|


Chorus (0:57) I'm the invisible man... (YEAH YOU ARE!!) =D
e|---------------------------|
B|---------------------------|
G|---------------------------|
D|--------!INTRO!------------| x 4
A|---------------------------|
E|---------------------------|

Verse x 6

Prechorus

Chorus x 4

Chorus (2:52) until end

-----------
Lead guitar
-----------

Intro (0:11)
e|------------------------------------|   -|
B|---7p0-7p0-8p0-5h7------------------|    |
G|----------------------7---9---------|    |
D|--------------------9---9-----------|    |
A|------------------------------------|    |
E|------------------------------------|    |
                                           |  x 2
e|------------------------------------|    |
B|---7p0-7p0-5p0-----------7-10-7-10--|    |
G|---------------------7-9------------|    |
D|-------------------9----------------|    |
A|----------------10------------------|    |
E|------------------------------------|   -|

Verse - Doesn't play

Prechorus (0:46) The drums are four on the floor...
e|------------------------------------------------------------|
B|---55555555557755777777777--557755550033777777777\----------|
G|------------------------------------------------------------|
D|------------------------------------------------------------|
A|------------------------------------------------------------|
E|------------------------------------------------------------|

Chorus (1:04)

e|-xx------xx-----x/---------------|
B|-xx------xx-----x/---------------|
G|-xx------xx-----x/---------------|
D|-xx------xx-----x/--12\----------|
A|-xx------xx-----x/---------------|
E|-xx------xx-----x/---------------|

then I'm not actually sure... It might be the intro again in the chorus or what the 
guitar plays but louder

Verse - Doesn't play

Chorus

(2:31) Whatever this part's called

e|-xx--|
B|-xx--|
G|-xx--|
D|-xx--|
A|-xx--|
E|-xx--|

then

(2:41) It's slightly different to the intro
e|------------------------------------|   -|
B|---7p0-7p0-8p0-5h7-------7-10-7-----|    |
G|----------------------7---------9---|    |
D|---------------------9--------------|    |
A|-------------------10---------------|    |
E|------------------------------------|    |
                                           |  x 2
e|------------------------------------|    |
B|-------7p0-5p0-----------7-10-7-10--|    |
G|---------------------7-9------------|    |
D|-------------------9----------------|    |
A|----------------10------------------|    |
E|------------------------------------|   -|


Chorus until end
Tap to rate this tab
# A B C D E F G H I J K L M N O P Q R S T U V W X Y Z