Song name
# A B C D E F G H I J K L M N O P Q R S T U V W X Y Z

Fall Out Boy - Lake Effect Kid tab

-----------------------------------------------------------------------
		  Lake effect kid intro- fall out boy
-----------------------------------------------------------------------
Tabbed by:rangariffic12
Email:rangariffic12@homtail.com

Tuning: standard

e|--------------------------------------------------------------------|
B|-------------------------------------------------------------------7|
G|------------------------------------------------------------------5-|
D|----7-5-7-5-7-5-7-5-3---7-5-7-5-7-5-7-5-3---7-5-7-5-7-5-7-----3-5---|
A|--3-------------------3-------------------3---------------3-5-------|
E|--------------------------------------------------------------------|

This is my first tab so if any one could tell me if I made any mistake or if they know 
more to the song I would greatly appreciate if you emailed me    thnx

| /  slide up
| \  slide down
| h  hammer-on
| p  pull-off
| ~  vibrato
| +  harmonic
| x  Mute note
=============================================================
Tap to rate this tab
# A B C D E F G H I J K L M N O P Q R S T U V W X Y Z