Song name
# A B C D E F G H I J K L M N O P Q R S T U V W X Y Z

Fall Out Boy - Lake Effect Kid tab

Lake effect kid by fallout boy
tabbed by sourcake
email: oniflare@hotmail.co.uk

intro

e|----------------------|
b|----------------------|
g|----------------------|
d|-8/------8/-----------|
a|-8/------8/-----------|
E|-6/------6/-----------|

pre verse

e|----------------------------------------|
b|----------------------------------------|
g|----------------------------------------|
d|-8-------7-------5-------3--------------|
a|-8-(x16)-7-(x16)-5-(x16)-3-(x16)--------|
E|-6-------5-------3-------1--------------|

verse
"some of the times....."
e|---------------------------------------------------------------------|
b|---------------------------------------------------------------------|
g|-7-777-77-77-7-7--5-555-55-55-5-5--3-333-33-33-3-3--2-222-22-22-2-2--|
d|-8-888-88-88-8-8--7-777-77-77-7-7--5-555-55-55-5-5--3-333-33-33-3-3--| (x2)
a|-8-888-88-88-8-8--7-777-77-77-7-7--5-555-55-55-5-5--3-333-33-33-3-3--|
E|-6-666-66-66-6-6--5-555-55-55-5-5--3-333-33-33-3-3--1-111-11-11-1-1--|

pre-chorus
"I've got a pocket full of deadliness......"
e|--20-20-20-20-20-20-20----------------20-18-17-15-13~~--|
b|----------------------18-18-18--------------------13~~--|
g|-------------------------------------------------(14)~~-|
d|--------------------------------(x3)--------------------|
a|--------------------------------------------------------|
E|--------------------------------------------------------|

chorus
"boomerang my head....."
e|------------------------------------------------------------------|
b|-----------------5-55-555-5-5-5-----------------------------------|
g|-2-22-222-2-2-2--5-55-555-5-5-5--5-55-555-5-5-5--7-777-77-77-7-7--|
d|-3-33-333-3-3-3--5-55-555-5-5-5--7-77-777-7-7-7--8-888-88-88-8-8--|
a|-3-33-333-3-3-3--3-33-333-3-3-3--7-77-777-7-7-7--8-888-88-88-8-8--|
E|-1-11-111-1-1-1------------------5-55-555-5-5-5--6-666-66-66-6-6--|

then repeat intro

verse 2 I have no idea how to play yet

repeat pre-chorus

then repeat chorus twice

both guitars might be playing for the solo, it sounds like there's two guitars soloing
unless thats just the terrible qaulity of youtube messing with me

after solo

e|-----------------------------------|
b|-----------------------------------|
g|---------------\777-7-77-77-7-7----|
d|--***REST***---\888-8-88-88-8-8----|
a|---------------\888-8-88-88-8-8----|
E|---------------\666-6-66-66-6-6----|

and after all that you should just be able to guess the ending, and you'll kow the layout
after a good while of practising

as for the solo I have no idea until I "attempt" to figure it out lolz
Tap to rate this tab
 
# A B C D E F G H I J K L M N O P Q R S T U V W X Y Z