Song name
# A B C D E F G H I J K L M N O P Q R S T U V W X Y Z

Fall Out Boy - Pavlove Acoustic tab

Artist: Fall Out Boy
Song: Pavlove (acoustic)
Album: Folie á Deux
Tabbed by: Necrion on guitar
E-mail: tim.rathgen@web.de

Tuning: Standart

This MY OWN acoustic version of this song. Theres only one short tab, so i made my own 
help starter learning PAVLOVE. Have fun

>>>>SCROLL DOWN FOR THE CHORDS VERSION<<<<


//Intro\\:
Clap, no guitar

"Oh, oh , oh-oh" x2

Now Hit these chords once:
    G       Em Bm
E------------------------|
B------------------------|
G--------------4---------|
D---5-------2--4---------| x1  "Oh, oh, oh-oh"
A---5-------2--2---------|
E---3-------0------------|


//Interlude\\:
Strumm down all chords
    G      Em     Bm     A
E---------------------------------|
B---------------------------------|
G-----------------4------2--------|
D---5------2------4-x4---2-x4-----| x2
A---5-x4---2-x4---2------0--------|
E---3------0----------------------|

Theres a E-guitar playing a riff, but that sounds crappy on a acoustic guitar


//Verse\\:    d=Downstroke   u=Upstroke
     G        Em            Bm
E--------------------------------------------------|
B-----------------------------------------2h3p2----|
G---------------------4-4-4----4-4-4-4-------------|
D--5-5-5---2-2-2-2----4-4-4----4-4-4-4-------------|
A--5-5-5---2-2-2-2----2-2-2----2-2-2-2-------------|
E--3-3-3---0-0-0-0---------------------------------|
   d u d   u d u d    d u d    u d u d    d


//Pre-Chorus\\:   >>PM ALL!!!   Strumm slowly    Crescendo (getting louder)<<
    A        Bm       Em      F#m     G        A
E------------------------------------------------------------|
B------------------------------------------------------------|
G---2--------4-----------------------------------------------|
D---2-x8-----4-x8-----2-------4-------5--------7-------------|
A---0--------2--------2-x4----4-x2----5-x2-----7-x8----------|
E---------------------0-------2-------3--------5-------------|


//Chorus part I\\:  Actually, theres no guitar, but you can play the baseline

Clap (ask a buddy to do that, or a drummer :D)
    G    Em     Bm      A           G      Em              Bm
E----------------------------------------------------------------------------|
B----------------------------------------------------------------------------|
G-------------------------------------------------4----44.-xxxx--44.-xx------|
D----------------------------------------22.--2---4----44.-xxxx--44.-xx------|
A-------------2----2-0-0-0-0-------------22.--2---2----22.-xxxx--22.-xx------|
E---3----0-----------------------3----3--00.--0--------------------------12\-|
    d    d    d    d d d d d     d    d  du   d   d    du  dudu  du  du  d

.= very short note

>>> I know that part is pretty hard and you have to listen to the song to get the rythm. 
short notes are very important for that part, btw <<<


//Chorus part II\\: Strum down
    G     Em     Bm     A
E-------------------------------|
B-------------------------------|
G----------------4------2-------|
D---5-----2------4-x4---2-x4----|
A---5-x4--2-x4---2------0-------|
E---3-----0---------------------|


Now they just repeat some parts...

-----------------------------------------------------------------------------|
-----------------------------------------------------------------------------|

            >>>>>>>>>>>>THE CHORDS VERSION<<<<<<<<<<<<<<<<<

INTRO:
       [clap]
Oh, oh, oh-oh      Oh, oh, oh-oh

G         Em   Bm
   Oh, oh, oh-oh      Oh, oh, oh-oh


INTERLUDE
[no lyrics]
G,Em,Bm,Bm


VERSE:
G                 Em          Bm      Bm
Something make my chest stir
G                 Em          Bm      Bm
Something make my head blur
G            Em                        Bm         Bm
  I'm not ready for a handshake with death, no
G        Em               Bm      Bm
  I'm just such a happy mess, whoa


PRE-CHORUS:
    A                      Bm
The drums are four on the floor
       Em         F#m  G   A
She's back to the bedroom for one more


CHORUS:
G          Em      Bm
I'm the invisible man
    A              G           Em    Bm            A
Who can't stop staring at the mirror, at the mirror

G          Em         Bm        A
I want to make you as lonely as me
          G               Em
So you can get, get addicted to this,
        Bm           A
You can get, get addicted to this now


INTERLUDE:
G      Em       Bm       Bm
Oh, oh, oh-oh     Oh, oh, oh-oh[x2]


VERSE:
G                      Em       Bm      Bm            G   Em   Bm   Bm
It's three things too late to talk to anyone but myself
G  Em                Bm           Bm           G      Em    Bm    Bm
   It's a three-and-two pitch to walk to anywhere—----else, no


PRE-CHORUS:
    A                      Bm
The drums are four on the floor
       Em         F#m  G   A
She's back to the bedroom for one more


CHORUS:
G          Em      Bm
I'm the invisible man
    A             G            Em   Bm             A
Who can't stop staring at the mirror, at the mirror

G          Em         Bm        A
I want to make you as lonely as me
          G               Em
So you can get, get addicted to this,
        Bm            A
You can get, get addicted to this now


INTERLUDE:
G      Em       Bm       Bm
Oh, oh, oh-oh     Oh, oh, oh-oh [x2]


BREAK (play the chords as in the interlude):
G          Em      Bm
I'm the invisible man
    A             G            Em   Bm             A
Who can't stop staring at the mirror, at the mirror

CHORUS:
G          Em         Bm        A
I want to make you as lonely as me
          G               Em
So you can get, get addicted to this,
        Bm            A
You can get, get addicted to this now


OUTRO-CHORUS:
G           Em    Bm            A
I'm the invisible man (I'm the invisible man)
G           Em    Bm            A
I'm the invisible man (I'm the invisible man)
G          Em        Bm         A
I want to make you as lonely as me,
      G       Em        Bm     A
Cause I'm the invisible man

-----------------------------------------------------------------------------|
-----------------------------------------------------------------------------|


Thats it, i hope you enjoyed getting confused :D

Just kidding, if theres any problems please mail me or comment.

Have a good day...
Tap to rate this tab
# A B C D E F G H I J K L M N O P Q R S T U V W X Y Z