Song name
# A B C D E F G H I J K L M N O P Q R S T U V W X Y Z

Fall Out Boy - Tiffany Blews tab

Fall out boy: Tiffany Blews
tabbed by: Sour cake
email: oniflare@hotmail.co.uk




Verse

Rythmn 

e|----------------------------------------------|
B|----------------------------------------------|
G|----------------------------------------------|
D|-----------------6-8-6-8--66-8/---------------|
A|-6-4-6--6-8-6-8--4-6-4-6--44-6/---666-66------|
E|-4-2-4--4-6-4-6-------------------------------|
   . .    . . .    . . .    ..      ... ..

Lead

e|----------------------------------------|
B|-----7--------------7-------7-xx9x9x9---|
G|-8-6---888-6----8-6---888-6---xx8x8x8---|
D|-------------6--------------------------|
A|----------------------------------------|
E|----------------------------------------|
   . .   ... .    . .   ... .

pre-chorus

Rythmn

e|------------------------------------------------|
B|------------------------------------------------|
G|------------------------------------------------|
D|-22222222-44444444-6666666666666666--22222222---|
A|-22222222-44444444-6666666666666666--22222222---|
E|-00000000-22222222-4444444444444444--00000000---|

Lead

e|----------------------------------------------|
B|----------------------------------------------|
G|----------------------------88886666-4433-----|
D|-22222222-44444444-66666666-xxxxxxxx-xxxx-6~--|
A|-22222222-44444444-66666666-66664444-2211-x~--|
E|-00000000-22222222-44444444---------------4~--|

chorus

Rythmn

e|-------------------------------------------------------------------------------|
B|-------------------------------------------------------------------------------|
G|-------------------44444444----------------------------------------------------|
D|-66666666-22222222-44444444-----------22222222-66666666-44444444-2222-2-1------|
A|-66666666-22222222-22222222-----2-4-2-22222222-66666666-44444444-2222-----4-2--|
E|-44444444-00000000----------2-4-------00000000-44444444-22222222-0000----------|

Lead

e|-------------------------------------------------------------------------------|
B|-------------------------------------------------------------------------------|
G|-------------------44444444----------------------------------------------------|
D|-66666666-22222222-44444444-----------22222222-66666666-44444444-2222-2-1------|
A|-66666666-22222222-22222222-----2-4-6-22222222-66666666-44444444-2222-----4-2--|
E|-44444444-00000000----------2-4-------00000000-44444444-22222222-0000----------|


2nd verse lead (in the second half)

lead 1

e|-11-9-----11h12~--11-9-----------|
B|------9~---------------9~--7h9~--|
G|---------------------------------|
D|---------------------------------|
A|---------------------------------|
E|---------------------------------|

lead 2

e|-11-9-----11h12~--11-9-------------|
B|------9~---------------9~--11h12~--|
G|-----------------------------------|
D|-----------------------------------|
A|-----------------------------------|
E|-----------------------------------|

then for the last chorus just do this then repeat the chorus as per usual

e|--------------------------------|
B|--------------------------------|
G|---------------------44444444---|
D|-6-6-6-6----22222222-44444444---|
A|-6-6-6-6----22222222-22222222---|
E|-4-4-4-4----00000000------------|
   . . . .

then right at the end of the last chorus the lead does this

e|---------------|
B|---------------|
G|-4-3-----------|
D|-----4-4h6~----|
A|---------------|
E|---------------|

you can figure out the structure yourself, its piss aha

any questions yadda yadda email me.
Tap to rate this tab
# A B C D E F G H I J K L M N O P Q R S T U V W X Y Z