Guitaretab - guitar tabs
Song name
# A B C D E F G H I J K L M N O P Q R S T U V W X Y Z

Fall Out Boy - Pavlove tab

Artist: Fall Out Boy
Song: Pavlove  (Solo-Part, Riff)
Album: Folie  Deux
Tabbed by: necriononguitar (many more FOB tabs and solos)
E-mail: tim.rathgen@gmx.de

Tuning: Standard

Version 1:
E------------------------------------------------------------------------------|
B---7-0---7-0---8-0---5h7-0---3-0---5-0---7-0---7-0---5\3~----3---0--3---------|
G------------------------------------------------------------------------------|
D------------------------------------------------------------------------------|
A------------------------------------------------------------------------------|
E------------------------------------------------------------------------------|

E-------5-------5----------|
B--5/7-----5/7-------------|
G--------------------------|
D--------------------------|
A--------------------------|
E--------------------------|
[ Tab from: http://www.guitaretab.com/f/fall-out-boy/187281.html ]
Version 2:
E--------------------------------------------------------------------------|
B--------------------------------------------------------------------------|
G---11-----11-----12-----9h11----------7------9-------11-----11-----9\7----|
D-------9------9------9---------9---------9------9-------9------9----------|
A--------------------------------------------------------------------------|
E--------------------------------------------------------------------------|

E----------------------------------------------|
B--------------------10---------10-------------|
G---7-----7----9/11-------9/11-----------------|
D------9---------------------------------------|
A----------------------------------------------|
E----------------------------------------------|

| /  slide up
| \  slide down
| h  hammer-on
| p  pull-off
| ~  vibrato
| +  harmonic
| x  Mute note


Thats it, i hope u enjoyed it. i think its correct and if you play it a few times,
it sounds pretty good.
Cheers...
Related for Pavlove tab