Guitaretab - guitar tabs
Song name
# A B C D E F G H I J K L M N O P Q R S T U V W X Y Z

Fall Out Boy - I Dont Care tab

Artist: Fall Out Boy
Song: I Don't Care (solo)
Album: Folie  Deux
Tabbed by: necriononguitar (many more FOB tabs and Solos)
E-Mail: Tim.rathgen@gmx.de

Tuning: Standard

E-----------------------------------------------------------------------|
B----------------------------------------------------------14---14~-----|
G-------------------------------------------14----14--16----------------|
D-----------------------------14----14--16------------------------------|
A----------------14----14--16-------------------------------------------|
E--/14----14--17--------------------------------------------------------|

E---12h14-(14)-14---12h14-(14)-14---12h14-(14)-14--------------|
B--------------------------------------------------------------|
G---------------------------------------------------14b16r14~--|
D--------------------------------------------------------------|
A--------------------------------------------------------------|
E--------------------------------------------------------------|
[ Tab from: http://www.guitaretab.com/f/fall-out-boy/187282.html ]
E---12h14-(14)-14---12h14-(14)-14---12h14-(14)-14--------------|
B--------------------------------------------------------------|
G---------------------------------------------------14b16r14~--|
D--------------------------------------------------------------|
A--------------------------------------------------------------|
E--------------------------------------------------------------|

E-------------------------------------12--14----17-17~------------------|
B-----------------------------------------------------------------------|  Hit the last
G--14b16r14~---16b18~--16--14-------------------------------------------|  note a few
D-------------------------------16~-------------------------------------|  times with
A------------------------------------------------------------  vibrato--|
E-----------------------------------------------------------------------|  until the end.

| /  slide up
| \  slide down
| h  hammer-on
| p  pull-off
| ~  vibrato
| +  harmonic
| x  Mute note


Thats it, thanks for watching. Im sure this is correct. If you want to complain, please 
me or comment, im sure we'll find a way :D

Cheers
Related for I Dont Care tab