Song name
# A B C D E F G H I J K L M N O P Q R S T U V W X Y Z

Fall Out Boy - The Shipped Gold Standard tab

Fall Out Boy
The(Shipped) Gold Standard
Folie a Deux

      Here it is.      Since some people may have a hard time understanding my many
I'll break it down a little bit.

Guitar 1 - Slightly Distorted Guitar(Mainly heard in the verse and Pre-chorus)

Guitar 2 - Slightly Distorted Guitar(Mainly heard in the verse and Pre-chorus)

Guitar 3 - Distorted Rhythm Guitar (Chorus and Bridge)

Guitar 4 - Distorted Rhythm Guitar (Chorus and Bridge)

There are 4 Guitars because in the chorus there are 3 different guitar parts. I use two
guitars because each one is played on the left and right side of the speaker. People
like this in most songs! I'm NOT saying there are 4 guitar parts required to play this 
So if you are going to fill my comments section up with why this tab sucks, instead of
it's hard to read, say I used a wrong chord or I did a part wrong and correct it!
            - Okay, to the tab...

Intro   STANDARD TUNING NOT DROPPED D

Guitar 1

e|------------------------------------|
B|------------------------------------| Repeat Twice and let ring.
G|------------------------------------|
D|-----------------------44--44--421--|
A|------44------66--------------------|
E|--2222--224444--22\0000--00--00-----|

Guitar 2

e|---------------------22--22--2----|
B|------------------------------54--|
G|------66----88--------------------| Repeat Twice and let ring
D|--4444--6666--66\2222--22--22-----|
A|----------------------------------|  You might want to change it up a bit
E|----------------------------------|  it's a little bit of a gap.

----------------------------------------------------------------------

Verse

Guitar 1

e|------------|
B|------------|
G|--4-4-4-44--| Repeat until Pre-chorus
D|--4-4-4-42--|
A|--x-x-x-x2--|
E|--4-4-4-40--|

Guitar two                        "Plant palm trees...)
e|------------------------------------|
B|------------------------------------|
G|----88888--88--888--88888--88-8-----| Repeat Twice
D|----xxxxx--xx--xxx--xxxxx--xx-x-----|
A|--6666666-666-66666666666-666-66-6--|
E|--77------7---7---77------7----7-7--|

---------------------------------------------------------------

Pre-Chorus


Guitar 1
         "I wanna scream..."
e|-------------------------------------------------------|
B|-------------------------------------------------------|
G|-------------------------------------------------------|
D|-----------------------44--44--421---------------------|
A|------44------66-----------------------44------66------|
E|--2222--224444--22\0000--00--00----2222--224444--22\0--|
PM|                                                   *

Guitar 2
                                                         "You can only..."
e|-----------------------22--22--2-------------------------------------|
B|--------------------------------54-------------------999-999-999999--|
G|------66------88-----------------------66------88----xxx-xxx-xxxxxx--|
D|--4444--446666--66\2222--22--22----4444--446666--66\-666-666-666666--|
A|---------------------------------------------------------------------|
E|---------------------------------------------------------------------|

--------------------------------------------------------------------

Chorus

Guitars 3&4
                                  "Blame your Problems on my world..."
e|---------------------------------------------|
B|---------------------------------------------|
G|------------------------44-4-4-44------------|
D|-xxxx-6-6-6-66-2-2-2-22-44-4-4-44-44-4-4-44--|
A|-xxxx-6-6-6-66-2-2-2-22-22-2-2-22-44-4-4-44--|
E|-xxxx-4-4-4-44-0-0-0-00-22-2-2-22-22-2-2-22--|
                                                   Repeat Twice
e|--------------------------------------|
B|--------------------------------------|
G|--------------------44-4-4-4444444----|
D|--6-6-6-66-2-2-2-22-44-4-4-4444444-4--|
A|--6-6-6-66-2-2-2-22-22-2-2-2222222-1--|
E|--4-4-4-44-0-0-0-00-22-2-2-2222222----|

Guitar 1

(Guitars 1 and 2 are hard to hear, but with headphones they are audible)

e|--------------------------------------------------------------------|
B|--------------------------------------------------------------------|
G|--88888888888888888888888888886666-88888888888888888888888888888-6--|
D|--xxxxxxxxxxxxxxxxxxxxxxxxxxxxxxxx-xxxxxxxxxxxxxxxxxxxxxxxxxxxxx-x--|
A|--66666666666666666666666666664444-66666666666666666666666666666-4--|
E|--------------------------------------------------------------------|

Guitar 2

e|--7777777777777777777777777777-----77777777777777777777777777777-6--|
B|--xxxxxxxxxxxxxxxxxxxxxxxxxxxx7777-xxxxxxxxxxxxxxxxxxxxxxxxxxxxx-x--|
G|--4444444444444444444444444444xxxx-44444444444444444444444444444-3--|
D|------------------------------4444----------------------------------|
A|--------------------------------------------------------------------|
E|--------------------------------------------------------------------|


Guitar 1
        "As soon as we hit the hospital I know we're gonna leave this town"
e|----------------------------------------------------|
B|----------------------------------------------------|
G|--888888889999999911111111111111111111111111111111--|
D|--xxxxxxxxxxxxxxxx-x-x-x-x-x-x-x-x-x-x-x-x-x-x-x-x--|
A|--6666666677777777-9-9-9-9-9-9-9-9-9-9-9-9-9-9-9-9--|
E|----------------------------------------------------|

Guitar 2

e|--777777779999999911111111111111111111111111111111--|
B|--xxxxxxxxxxxxxxxx-x-x-x-x-x-x-x-x-x-x-x-x-x-x-x-x--|
G|--4444444466666666-8-8-8-8-8-8-8-8-8-8-8-8-8-8-8-8--|
D|----------------------------------------------------|
A|----------------------------------------------------|
E|----------------------------------------------------|

Guitar 1
                "And get new passports and get out now..."
e|-----------------------------------|
B|-----------------------------------|
G|--88888888888888888888888888888-6--|
D|--xxxxxxxxxxxxxxxxxxxxxxxxxxxxx-x--|
A|--66666666666666666666666666666-4--|
E|-----------------------------------|

Guitar 2

e|--77777777777777777777777777777-6--|
B|--xxxxxxxxxxxxxxxxxxxxxxxxxxxxx-x--|
G|--44444444444444444444444444444-3--|
D|-----------------------------------|
A|-----------------------------------|
E|-----------------------------------|

------------------------------------------------------------------

Repeat Verse, Prechorus, and Chorus again.

------------------------------------------------------------------

Bridge - With a swing feel

Guitars 3&4

e|--------------------------------------|
B|--------------------------------------|
G|--------------------------------------| Repeat Twice
D|---6-xxxxxxxxxxxx-4-6-xxxxxxxxxxxx-4--|
A|---6-xxxxxxxxxxxx-4-6-xxxxxxxxxxxx-4--|     H= Harmonic!
E|---4-444444444444-2-4-444444444444-2--|
Harm---HHHHHHHHHHHH     HHHHHHHHHHHH

-------------------------------------------------------------------

Interlude

Guitar 1
         "I wanna scream..."
e|-----------------------------------|------------------------------|
B|-----------------------------------|<-2x's--Then this-------------|
G|-----------------------------------|------------------------------|
D|-----------------------44--44--421-|-----------------------44--4--|
A|------44------66-------------------|------44------66--------------|
E|--2222--224444--22\0000--00--00----|--2222--224444--22\0000--00---|
PM

Guitar 2
                                                         "You can only..."
e|-----------------------22--22--2---|-----------------------22--2--|
B|--------------------------------54-|<-2x's--Then this-------------|
G|------66------88-------------------|------66------88--------------|
D|--4444--446666--66\2222--22--22----|--4444--446666--66\2222--22---|
A|-----------------------------------|------------------------------|
E|-----------------------------------|------------------------------|

-------------------------------------------------------------------------

Repeat Chorus

-------------------------------------------------------------------------

Outro

Guitar 1

e|------------|
B|------------|
G|--4-4-4-44--| Repeat until Pre-chorus
D|--4-4-4-42--|
A|--x-x-x-x2--|
E|--4-4-4-40--|

                 Guitars 1 and 2 are pretty unimportant so if you can't figure them out
not a big deal. If you have questions, comments, or recommendations comment me! Please
JUST post comments about how it's hard to read because it may be hard for you, but other 
may not have a problem with it. If you see something wrong, tell me or post a
please!
Tap to rate this tab
 
# A B C D E F G H I J K L M N O P Q R S T U V W X Y Z