Song name
# A B C D E F G H I J K L M N O P Q R S T U V W X Y Z

Fall Out Boy - Hum Hallelujah tab

Hum Hallelujah – Fall Out Boy

Key:
s  – Slide
ps – Pick Slide
#  - Pinch Harmonic
*  - Palm Mute
!  - Fret Mute
~  - Let Ring



Intro:
Rhythm
0:00
e|--------------------------------|
B|-7-7-5-5-5-5-7-7-5-5-5-5--------|
G|-------------------------7-7-7-7|
D|--------------------------------|
A|--------------------------------|
D|--------------------------------|X8

Lead
0:10
e|--------------------------------------|
B|--------------------------------------|
G|--------------------------------------|
D|-12s0-00-0~-000-0~-000-0~-000-0~-6666-|
A|-12s0-00-0~-000-0~-000-0~-000-0~-6666-|
D|-12s0-00-0~-000-0~-000-0~-000-0~-6666-| 
        **    ***    ***    ***    !!!!



Verse 1
Both Guitars
0:20
e|----------------------------|
B|----------------------------|
G|----------------------------|
D|-00-0~-000-0~-999-9~-555-5~-|   
A|-00-0~-000-0~-999-9~-555-5~-|   
D|-00-0~-000-0~-999-9~-555-5~-|X2 
   **    ***    ***    ***

Lead
0:40
e|-----------------------------------------|
B|-----------------------------------------|
G|-----------------------------------------|
D|-00-9-00-9-00-7-00-7-00-0-00-0-00-5-00-5-|
A|-00-9-00-9-00-7-00-7-00-0-00-0-00-5-00-5-|
D|-00-9-00-9-00-7-00-7-00-0-00-0-00-5-00-5-|X2
   **   **   **   **   **   **   **
Rhythm
e|-----------------------------------------|
B|-----------------------------------------|
G|-----------------------------------------|
D|-99-9-99-9-77-7-77-7-00-0-00-0-55-5-55-5-|
A|-99-9-99-9-77-7-77-7-00-0-00-0-55-5-55-5-|
D|-99-9-99-9-77-7-77-7-00-0-00-0-55-5-55-5-|X2
   ** * ** * ** * ** * ** * ** * ** * ** *





Pre Chorus:
Both Guitars
0:57
e|--------------|
B|--------------|
G|--------------|
D|-555555555555-|
A|-555555555555-|
D|-555555555555-|

Chorus
e|--------------------------------------|
B|--------------------------------------|
G|--------------------------------------|
D|-12s0-00-0-55-5-00-0-00-999999s555555-|
A|-12s0-00-0-55-5-00-0-00-999999s555555-|
D|-12s0-00-0-55-5-00-0-00-999999s555555-|

e|-------------------------------------------------------------------|
B|-------------------------------------------------------------------|
G|-------------------------------------------------------------------|
D|-0-0-66666666666-5-5-66666666666-0-0-66666666666-99999999s55555555-|
A|-0-0-66666666666-5-5-66666666666-0-0-66666666666-99999999s55555555-|
D|-0-0-66666666666-5-5-66666666666-0-0-66666666666-99999999s55555555-|
       !!!!!!!!!!!     !!!!!!!!!!!     !!!!!!!!!!!

(Play Intro Riff Once)

Verse 2
(Play Through Once)
(Same As Verse 1)

Chorus (Play once)

Break
e|---|
B|---|
G|---|
D|-1-|
A|-1-|
D|-1-|   Repeat As Much As Needed
   !

Pre Chorus 2

e|--------------|
B|--------------|
G|--------------|
D|-0~-0-5-0-0-9-|
A|-0~-0-5-0-0-9-|
D|-0~-0-5-0-0-9-|

Chorus
(Same As Both Other Chorus’)

(Play Second Half Twice)

e|---|
B|---|
G|---|
D|-0~|
A|-0~|
D|-0~|
Tap to rate this tab
 
# A B C D E F G H I J K L M N O P Q R S T U V W X Y Z