Song name
# A B C D E F G H I J K L M N O P Q R S T U V W X Y Z

Fall Out Boy - Alphadog And Omegalomaniac tab

This is the tab to the NEW, and unfortunately, final
Fall Out Boy song. For now anyways, as they've gone
on a hiatus. ): I hope you enjoy the tab.

Alphadog
 Intro (Repeat Until Verse)
e|--------------|   |--------------|   |--------------|   |-----------------|
b|---6--8-10----|   |---6--8-10----|   |---6--8-10----|   |-10-11-10-11-10-6|
g|-7------------|   |-5------------|   |-3------------|   |-----------------|
d|--------------|   |--------------|   |--------------|   |-----------------|
a|--------------|   |--------------|   |--------------|   |-----------------|
e|--------------|   |--------------|   |--------------|   |-----------------|

 Verse, Chorus and Bridge. The Bridge is Clean.
(Rhythm) I'm not sure of the lead just yet.
|--------------|    |--------------|   |----------------------------|
|--------------|    |--------------|   |----------------------------|
|--------------|    |--------------|   |----------------------------|
|-12-12-12-12--|    |-10-10-10-10--|   |-8--8--8--8--8--8--8--8-----|
|-12-12-12-12--|    |-10-10-10-10--|   |-8--8--8--8--8--8--8--8-----|
|-10-10-10-10--|    |-8--8--8--8---|   |-6--6--6--6--6--6--6--6-----|

That's all that's to the song! Very simple. Have fun.
Please comment and rate my tab.
Tap to rate this tab
 
# A B C D E F G H I J K L M N O P Q R S T U V W X Y Z