Song name
# A B C D E F G H I J K L M N O P Q R S T U V W X Y Z

Fall Out Boy - Lullabye tab

-------------------------------------------------------------------------------
			     LULLABY - Fall Out Boy (Folie  Deux)
-------------------------------------------------------------------------------
Tabbed by: THEGUITARIST620
This is as accrete a tab as there is please enjoy!! All Tabbed by me and my ears!!

Tuning: Standard - (Finger Picking is best.)

Intro:
  G
e|-------------3------|---------3------|
B|-0--0---0------0----|-0---0-----0----|
G|--------------------|----------------|
D|--------------------|----------------|Play 2nd measure (4 times)
A|--------------------|----------------|
E|--x---3---3---3---3-|---3---3--3--3--|

Verse 1:
  G                  C                     D               C
e|------------------|---------3-----------|---------0---2-|---------3-----------|
B|-0---0----0---0---|-0---0-------0---0---|-----3---------|-0---0-------0---0---|
G|------------------|---------------------|---------------|---------------------| Play 3 times
D|------------------|---------------------|-------0---0---|---------------------|
A|------------0---2-|---3---3---3---3---3-|-3/5-----------|---3---3---3---3---3-|
E|---3---3----------|---------------------|---------------|---------------------|

  G                  C                     D               C
e|------------------|---------------------|---------0---2-|---------3-----------|
B|-----0--0-0-------|---0---0--0----------|-----3---------|-0---0-------0---0---|
G|------------------|---0---0--0----------|---------------|---------------------| Play Once
D|------------------|---2---2--2----------|-------0---0---|---------------------|
A|------------0-----|---3---3--3----------|-3/5-----------|---3---3---3---3---3-|
E|---3---3-3--------|---------------------|---------------|---------------------|

Chorus:  (Hand Strum here)
   C  G  D        C  C  D
e|-3--3--222222-      |-3--3--2------------|
B|-0--0--333333-      |-0--0--3-(Let Ring)-|
G|-0--0--222222- (x3) |-0--0--2------------|  (once)
D|-2--0--000000-      |-2--2--0------------| 
A|-3--2---------      |-3--3---------------|
E|----3---------      |--------------------|

Verse 2:
  G                  C                     D               C
e|------------------|---------3-----------|---------0---2-|---------3-----------|
B|-0---0----0---0---|-0---0-------0---0---|-----3---------|-0---0-------0---0---|
G|------------------|---------------------|---------------|---------------------| Play Twice
D|------------------|---------------------|-------0---0---|---------------------|
A|------------0---2-|---3---3---3---3---3-|-3/5-----------|---3---3---3---3---3-|
E|---3---3----------|---------------------|---------------|---------------------|

Chorus:  (Hand Strum here)
   C  G  D        C  C  D
e|-3--3--222222-      |-3--3--2------------|
B|-0--0--333333-      |-0--0--3-(Let Ring)-|
G|-0--0--222222- (x3) |-0--0--2------------|  (once)
D|-2--0--000000-      |-2--2--0------------| 
A|-3--2---------      |-3--3---------------|
E|----3---------      |--------------------|

Final Verse:
  G                  C                     D               C
e|------------------|---------3-----------|---------0---2-|---------3-----------|
B|-0---0----0---0---|-0---0-------0---0---|-----3---------|-0---0-------0---0---|
G|------------------|---------------------|---------------|---------------------| Play Once
D|------------------|---------------------|-------0---0---|---------------------|
A|------------0---2-|---3---3---3---3---3-|-3/5-----------|---3---3---3---3---3-|
E|---3---3----------|---------------------|---------------|---------------------|

  G                  C                     D               C
e|------------------|---------3-----------|---------0---2-|-3-------------------|
B|-0---0----0---0---|-0---0-------0---0---|-----3---------|-0-------------------|
G|------------------|---------------------|---------------|-0--(Let Ring)-------| Play Once
D|------------------|---------------------|-------0---0---|-2-------------------|
A|------------0---2-|---3---3---3---3---3-|-3/5-----------|-3-------------------|
E|---3---3----------|---------------------|---------------|---------------------|


| /  Slide Up
| x  Mute note
===============================================================================
Bonus Lyrics!! 
Instructions: Print, Play, Sing, Enjoy!!

Fall Out Boy 
Lullaby

Honey is for bees, silly bear.
Besides, there's jelly beans everywhere.
It's not what it seems
In the land of dreams.
Don't worry your head, 
Just go to sleep.

It doesn't matter
How you feel.
Life is just a ferris wheel.
It's always up and down, 
Don't make a sound.

When you wake up, 
The world will come around.
When you wake up, 
The world will come around.

It's just the sweet weather
And the peacock feathers.
In the morning, 
It will all be better.
It's not what it seems
In the land of dreams.
Don't worry your head, 
Just go to sleep.

When you wake up, 
The world will come around.
When you wake up, 
The world will come around.

Honey is for bees, silly bear.
Besides, there's jelly beans everywhere.
It's not what it seems
In the land of dreams.
Don't worry your head, 
Just go to sleep.
Tap to rate this tab
 
# A B C D E F G H I J K L M N O P Q R S T U V W X Y Z