Song name
# A B C D E F G H I J K L M N O P Q R S T U V W X Y Z

Fall Out Boy - Whats This tab

Only saw there was one tab for this song.
So figure give it a go.

intro
Guitar
e-----------------5-6-5---------------5---|
b---6----6----6-8----------5----5-6-8---6-|
g-7----7----7------------6----6-----------|
d-----------------------------------------|
a-----------------------------------------|
e-----------------------------------------|

e------------5-6-5----5----5---------10-|
b---6----6-8--------6----6---6-8-5------|
g-7----7---------------------------7----|
d---------------------------------------|
a---------------------------------------|
e---------------------------------------|

Piano
e-8--5---------6-10--6---------------|
b------6---6-8----------6------------|
g--------7----------------7--------5-|
d---------------------------8-7--8---|
a------------------------------------|
e------------------------------------|

e---------------------------|
b-----3----4--------3-------|
g-3-5----5----3-------3---5-|
d---------------5--5----5---|
a---------------------------|
e---------------------------|

e-5--------3~-|
b---7------3~-|
g-----8-5--4~-|
d----------5~-|
a----------5~-|
e----------3~-|

Verse
Lead
e--------------------------------------------------|
b--------------------------------------------------|
g--------------------------------------------------|
d-5----5--5-5-4----4--4-4-5----5--4-4-5-5-6-6-7-7~-|
a----7-----------6-----------7---------------------|
e--------------------------------------------------|

e------------------------------------------------------------|
b------------------------------------------------------------|
g------------------------------------------------------------|
d-5----5--5-5-4----4--4-4-5----5--4-4-5-5-6-6-7-7-8-8-9-9----|
a----7-----------6-----------7----------------------------9~-|
e------------------------------------------------------------|

Rhythm (palm muted)
e---------------------------------------------------------------|
b---------------------------------------------------------------|
g-555555555555555-444444444444444-555555555555555-4-4-5-5-6-6-7-|
d-555555555555555-444444444444444-555555555555555-4-4-5-5-6-6-7-|
a-333333333333333-222222222222222-333333333333333-2-2-3-3-4-4-5-|
e---------------------------------------------------------------|

e-----------------------------------------------------------------|
b-----------------------------------------------------------------|
g-555555555555555-555555555555555-444444444444444-555555555555555-|
d-555555555555555-555555555555555-444444444444444-555555555555555-|
a-333333333333333-333333333333333-222222222222222-333333333333333-|
e-----------------------------------------------------------------|

e-------------------------------------------------|
b-------------------------------------------------|
g-4-4-5-5-6-6-7-7-8-8-9-9-----555555555555555-999-|
d-4-4-5-5-6-6-7-7-8-8-9-9-9~--555555555555555-xxx-|
a-2-2-3-3-4-4-5-5-6-6-7-7-9~--333333333333333-777-|
e-------------------------7~----------------------|

Chorus 1
(I think it's both guitars.  If not, other part is VERY hard to hear)
e----------------------------------------------------------------|
b----------------------------------------------------------------|
g-5-5-5-5--7-7-9--4-4-4-4--5-5-7--5-5-5-5--7-7-9--4-4-4-4--5-5-7-|
d-x-x-x-x--x-x-x--x-x-x-x--x-x-x--x-x-x-x--x-x-x--x-x-x-x--x-x-x-|
a-3-3-3-3--5-5-7--2-2-2-2--3-3-5--3-3-3-3--5-5-7--2-2-2-2--3-3-5-|
e----------------------------------------------------------------|

e----------------------------------------------------------------|
b----------------------------------------------------------------|
g-3-3-3-3--5-5-6--10-10-10-10-10-10-10-10--6-6-6-6-6-6-6--6~--5~-|
d-x-x-x-x--x-x-x---x--x--x--x--x--x--x--x--x-x-x-x-x-x-x--x~--x~-|
a-1-1-1-1--3-3-4---8--8--8--8--8--8--8--8--4-4-4-4-4-4-4--4~--3~-|
e----------------------------------------------------------------|

2nd Verse (Both guitars play build up.  Idk if it's a lead
and rhythm part, but I'm lazy and I think it's both guitars)
Lead
e---------------------------------------------------|
b---------------------------------------------------|
g---------------------------------------------------|
d-6----6--6-6-5----5--5-5-6--6----6-6-5-5-6-6-7-7-8-|
a----8-----------7-------------8--------------------|
e---------------------------------------------------|

e-------------------------------------|
b-------------------------------------|
g-------------------------------------|
d-6----6--6-6-5----5--5-5-6--6----6-6-|
a----8-----------7-------------8------|
e-------------------------------------|

Rhythm
e---------------------------------------------------------------------|
b---------------------------------------------------------------------|
g-66666666666-555555555555-666666666666-5-5-6-6-7-7-8--66666666666666-|
d-66666666666-555555555555-666666666666-5-5-6-6-7-7-8--66666666666666-|
a-44444444444-333333333333-444444444444-3-3-4-4-5-5-6--44444444444444-|
e---------------------------------------------------------------------|

e------------------------------------------------|
b------------------------------------------------|
g-66666666666666-555555555555555-666666666666666-|
d-66666666666666-555555555555555-666666666666666-|
a-44444444444444-333333333333333-444444444444444-|
e------------------------------------------------|

"Build Up" (Both Guitars)
e------------------------------------------|
b------------------------------------------|
g-5-5-6-6-7-7-9-9-10-10-13-13--------------|
d-5-5-6-6-7-7-9-9-10-10-13-13-101010101010-|
a-3-3-4-4-5-5-7-7--8--8-11-11-101010101010-|
e------------------------------8-8-8-8-8-8-|

e------------------------------------------|
b------------------------------------------|
g--(11's)---------------------666666666666-|
d-11111111-10101010-8888-7777-666666666666-|
a-11111111-10101010-8888-7777-444444444444-|
e--9-9-9-9--8-8-8-8-6666-5555--------------|

3rd Verse
Piano (last bit is kinda hard to figure out.)
e-13----------13----------13----------13----------|
b----14----14----14----14----14----14----14----14-|
g-------13----------13----------13----------13----|
d-------------------------------------------------|
a-------------------------------------------------|
e-------------------------------------------------|

e-12----------12----------12----------12----------|
b----13----13----13----13----13----13----13----13-|
g-------13----------13----------13----------13----|
d-------------------------------------------------|
a-------------------------------------------------|
e-------------------------------------------------|

e-13----------13----------13----------13----------|
b----14----14----14----14----14----14----14----14-|
g-------13----------13----------13----------13----|
d-------------------------------------------------|
a-------------------------------------------------|
e-------------------------------------------------|

For last piano bit when it slows down, fiddle around
with 12 13 13 strings.
e-12-
b-13-
g-13-

Guitar (palm mute except first stroke)
e------------------------------------------------|
b------------------------------------------------|
g-66666666666666-555555555555555-666666666666666-|
d-66666666666666-555555555555555-666666666666666-|
a-44444444444444-333333333333333-444444444444444-|
e------------------------------------------------|

e-------------------------------------------------------------------|
b-------------------------------------------------------------------|
g-66666666666666-5-5-5-5-6-6-6-6-7-7-7-7-9-9-9-9-10~---666666666666-|
d-66666666666666-5-5-5-5-6-6-6-6-7-7-7-7-9-9-9-9-10~---666666666666-|
a-44444444444444-3-3-3-3-4-4-4-4-5-5-5-5-7-7-7-7--8~---444444444444-|
e-------------------------------------------------------------------|

Chorus 2
e------------------------------------------------------------------|
b------------------------------------------------------------------|
g-6-6-6-6--8-8-10--5-5-5-5--6-6-8--6-6-6-6--8-8-10--5-5-5-5--6-6-8-|
d-x-x-x-x--x-x--x--x-x-x-x--x-x-x--x-x-x-x--x-x--x--x-x-x-x--x-x-x-|
a-4-4-4-4--6-6--8--3-3-3-3--4-4-6--4-4-4-4--6-6--8--3-3-3-3--4-4-6-|
e------------------------------------------------------------------|

e-----------------------------------------------------------------------|
b-----------------------------------------------------------------------|
g-4-4-4-4--6-6-7--11-11-11-11-11-11-11-11--10-10-10-10-10-10-10--7~--6~-|
d-x-x-x-x--x-x-x---x--x--x--x--x--x--x--x--x---x--x--x--x--x--x--x~--x~-|
a-2-2-2-2--4-4-5---9--9--9--9--9--9--9--9---8--8--8--8--8--8--8--5~--4~-|
e-----------------------------------------------------------------------|

Ending
Lead
e----------------------------------|
b----------------------------------|
g----------------------------------|
d-7----7--7-7-6----6--6-6-7----7-7-|
a----9-----------8-----------9-----|
e----------------------------------|

e-----------------------------------------------------------------|
b-----------------------------------------------------------------|
g-----------------11-11-11-11-11-11-11-11-11-11-11-11-10-10-10-10-|
d-6-6-6-6-6-6-6-6--x--x--x--x--x--x--x--x--x--x--x--x--x--x--x--x-|
a------------------9--9--9--9--9--9--9--9--9--9--9--9--8--8--8--8-|
e-----------------------------------------------------------------|

Rhythm
e-------------------------------------------------|
b-------------------------------------------------|
g-777777777777777-666666666666666-777777777777777-|
d-777777777777777-666666666666666-777777777777777-|
a-555555555555555-444444444444444-555555555555555-|
e-------------------------------------------------|

e-----------------------------------------------------|
b----------------------(11's)-------------------------|
g-6-6-7-7-8-8-10-10-1111111111111111------(11's)------|
d-6-6-7-7-8-8-10-10-1111111111111111-1111111111111111-|
a-4-4-5-5-6-6--8--8--9-9-9-9-9-9-9-9-1111111111111111-|
e-------------------------------------9-9-9-9-9-9-9-9-|

Last Part
Both Guitars
e-------------------------------------|
b-------------------------------------|
g-7777-6666-4444-3333--7~-------------|
d-7777-6666-4444-3333--7~--7~--9~---7-|
a-5555-4444-2222-1111--5~--7~--9~---7-|
e--------------------------5~--7~---5-|
Tap to rate this tab
# A B C D E F G H I J K L M N O P Q R S T U V W X Y Z