Guitaretab - guitar tabs
Song name
# A B C D E F G H I J K L M N O P Q R S T U V W X Y Z

Fall Out Boy - Coffees For Closers tab

--------------------------------------------------------------
	     (COFFEE'S FOR CLOSERS) - FALL OUT BOY
--------------------------------------------------------------
Tabbed by: sleepydork - http://www.youtube.com/user/sleepydork77
Email: seankearney@gmx.com

A more accurate tab :)

Tuning: Standard (eBGDAE)

Intro: Figure out strumming pattern, it's easy eigth notes.

e|-----------------------|
B|-----------------------|
G|-9/13-11-9---9--16-14--| Repeat x2, when repeat don't do the E octave slide
D|-x-x--x--x---x---x--x--|
A|-7/11-9--7---7--14-12--|
E|-----------------------|

Verse 1: "I, I, I can't explain a thing..."
e|---------------------------------------------|
B|---------------------------------------------|
G|-13~/16~----9/13-11-9-16-14-13-11-9----------|
D|--x---x-----x-x--x--x-x--x--x--x--x----------|
A|-11~/14~----7/11-9--7-14-12-11-9--7----------|
E|---------------------------------------------|

Pre-Chorus: "And oh baby, when they made me..."

e|-------------------------------------------------------------------------|
B|-------------------------------------------------------------------------|
G|2-222222-----------6-666666-6-66-------2-222222-----------9-9-8-8-6-6~---|
D|2-222222-4-444444--6-666666-6-66----2--2-222222-4-444444--x-x-x-x-x-x----|
A|0-000000-4-444444--4-444444-4-44-2h4---0-000000-4-444444--7-7-6-6-4-4~---|
E|---------2-222222-------------------------------2-222222-----------------|
    ......   ......    ......   ..         ......   ......
Breakdown: "Fly your cameras in the air..."

e|---------------------------|
B|---------------------------|
G|-------2~--4~--4-----------| 
D|--2~---2~--4~--4-----------|
A|--2~---0~--2~--2-----------|
E|--0~-----------------------|

Chorus: "I will never believe in anything again..."
[ Tab from: http://www.guitaretab.com/f/fall-out-boy/225331.html ]
e|--------------------------------------------------------------------------|
B|--------------------------------------------------------------------------|
G|66666666-22222222-9-99-8-88-6-66-4-44---2222222-44444444-66666666---------|
D|66666666-22222222-9-99-8-88-6-66-4-44---2222222-44444444-66666666---------|
A|44444444-00000000-7-77-6-66-4-44-2-22---0000000-22222222-44444444---------|
E|--------------------------------------------------------------------------|

Post Chorus: "Change will come, oh, change will come..."

e|------------------------------------------------|
B|------------------------------------------------|
G|--2--4--6---2--4--6--6-4-22222222-44444444------|
D|--2--4--6---2--4--6--6-4-22222222-44444444------|
A|--0--2--4---0--2--4--4-2-00000000-22222222------|
E|------------------------------------------------|

Intro x1
Verse x1
Pre-chorus x1
Breakdown x1
Chorus x1
Post Chorus x1

"We will never believe again..." - bridge

e|-----------------------------------------------|
B|-----------------------------------------------|
G|-2----4--6~-6-------2----4--6~-6---------------|
D|-2--4-4--6--6----2--2--4-4--6--6-----2--2~-----|
A|-0--4-2--4~-4-2h4---0--4-2--4~-4--2h4---2~-----|
E|----2------------------2----------------0~-----|

"I will never believe in anything again..." (cont)

e|----0------------------------------------------------------|
B|----0------------------------------------------------------|
G|----0-6666666666666666-------------------------------------|
D|----0-6666666666666666-------------------------------------|
A|----0-4444444444444444-------------------------------------|
E|----0-........---------------------------------------------|

Post Chorus x1
Chorus x1
Post Chorus x1
Outro x1

Outro

e|---------------------------------------------------|
B|---------------------------------------------------|
G|-----2-----2---------------------------------------|
D|--2--2--2--2--2~-----------------------------------|
A|--2--0--2--0--2~-----------------------------------|
E|--0-----0-----0~-----------------------------------|

Repeat until end.


| .  palm mute
| /  slide up
| \  slide down
| h  hammer-on
| p  pull-off
| ~  vibrato
| +  harmonic
| x  Mute note
=============================================================================
Related for Coffees For Closers tab
Coffees For Closers chords by Fall Out Boy