Fall Out Boy - Disloyal Order Of Water Buffaloes tab

~ let note ring
. palm mute
/ slide up
\ slide down
h hammer-on
p pull-off

Top Guitar - Pat (rhythm)
Bottom Guitar - Joe (lead)

The Open D string isn't played through this riff until the band comes in.
e|----------------------------------------|
b|-77777-777-777555---77777-777-777555----|
g|-77777-777-777777---77777-777-777777----|
d|----------------------------------------|
a|----------------------------------------|
D|----------------------------------------|

after a few measures, the other guitar comes in:
  |----------------------------------------|
  |-77777-777-777555---77777-777-777555----|
  |-77777-777-777777---77777-777-777777----|
 /|-00000-000-000000---00000-000-000000----|
| |----------------------------------------|
| |----------------------------------------|
|                                            (4x)
| |----------------------------------------|
| |----------------------------------------|
 \|----------------------------------------|
  |--0~~~--------7---5~~-------------------|
  |--0~~~--------7---5~~-------------------|
  |--0~~~--------7---5~~-------------------|
play that 4 times, then the chord progression changes.

don't let the bass guitar's high notes fool you. the guitar stays low.
  |-----------------------------------------------------|
  |-----------------------------------------------------|
  |----2-----2-----2-----------------2-----2----2-------|
 /|---------------------4\2------------------------4\2--|
| |-22-----------00--------------22---------00----------|
| |-------22----------44---------------22--------44-----|
|   ..    ..     ..   ..         ..    ..   ..   ..       (1x)
|
| (when the guitar above plays the high 2's play these 12's)
| |-----------------------------------------------------|
| |-----------------------------------------------------|
 \|-----------------------------------------------------|
  |---14---14---14-------11\9------14----14---14---11\9-|
  |---12---12---12--------9\7------12----12---12----9\7-|
  |-----------------------------------------------------|

  |-----------------------------------------------------|
  |-----------------------------------------------------|
  |----2-----2-----2-----------------2-----2---222-22-2-|
 /|---------------------4\2-----------------------------|
| |-22-----------00--------------22----------0----------|
| |-------22----------44---------------22---------------|
|   ..    ..     ..   ..         ..    ..    .           (1x)
|
| |-----------------------------------------------------|
| |-----------------------------------------------------|
 \|-----------------------------------------------*strum|
  |---14---14---14-------11\9------14----14---14----14*-|
  |---12---12---12--------9\7------12----12---12----12*-|
  |-----------------------------------------------------|


{Pre-Chorus 1} kinda off-beat timing strums. cool mini-chords
"I'm a loose bolt..."
  |-----------------------------------------------------------------|
  |-----------------------------------------------------------------|
  |-------4~--------------6~--------------7~------------------------|
 /|-------5~--------------7~--------------9~------------------------| (x2)
| |-------5~--------------7~--------------9~------------------------|
| |-----------------------------------------------------------------|
|  1 + 2 + 3 + 4 + 1 + 2 + 3 + 4 + 1 + 2 + 3 + 4 + 1 + 2 + 3 + 4 +
|
| then Joe's guitar comes in with this:
| |----------------------------------------|
| |-----------8p7-5p3----------------------|
 \|--9p7-9p7------------4~-6~-7~~~---4\\\--| (x1)
  |----------------------------------------|
  |----------------------------------------|
  |----------------------------------------|

...all the instruments drop out except Pat's guitar.
|------------------------|
|--77777-777-777555------|
|--77777-777-777777------|
|-(0)--------------------|
|------------------------|
|------------------------|


{Chorus 1}
    Pat: Rhyhtm guitar - straightforward
  |-------------------------------------------|
  |-------------------------------------------|
  |-------------------------------------------|
 /|-0000-5555-9999-7777--0000-5555-9999-7777--| 
| |-0000-5555-9999-7777--0000-5555-9999-7777--|
| |-0000-5555-9999-7777--0000-5555-9999-7777--|
|
|   Joe: Lead - hard to hear on the CD, but listen to this song 
|   played live you'll hear it clearly. Very interesting timing.
| |----------------------------------------------------|
| |--10-----8---7------------10-----8----7-------------|
 \|-----11----9---7--9--11------11-----9---7--9-11-----|
  |----------------------------------------------------|
  |--------(this guitar only, play 2 times)------------|
  |----------------------------------------------------|

  |-------------------------------------------|
  |-------------------------------------------|
  |-------------------------------------------|
 /|-0000-5555-9999-7777--4444-5555-9999-7777--|
| |-0000-5555-9999-7777--4444-5555-9999-7777--|
| |-0000-5555-9999-7777--4444-5555-9999-7777--|
|
| |----------------------------------------------------|
| |--10-----8---7------------10-----8----7-------------|
 \|-----11----9---7--9--11------11-----9---7--9-11-----|
  |----------------------------------------------------|
  |-------------(play again 2 times)-------------------|
  |----------------------------------------------------|


{Verse 2}
  |----------------------------------------|
  |-77777-777-777555---77777-777-777555----|
  |-77777-777-777777---77777-777-777777----|
 /|-00000-000-000000---00000-000-000000----|
| |----------------------------------------|
| |----------------------------------------|
|                                            (x4)
| |----------------------------------------|
| |----------------------------------------|
 \|----------------------------------------|
  |--0~~~--------7---5~~-------------------|
  |--0~~~--------7---5~~-------------------|
  |--0~~~--------7---5~~-------------------|

"Painted doors in the hallway..."
  |-----------------------------------------------------|
  |-----------------------------------------------------|
  |----2-----2-----2-----------------2-----2----2-------|
 /|---------------------4\2------------------------4\2--|
| |-22-----------00--------------22---------00----------|
| |-------22----------44---------------22--------44-----|
|   ..    ..     ..   ..         ..    ..   ..   ..      (1x)
| |-----------------------------------------------------|
| |-----------------------------------------------------|
 \|-----------------------------------------------------|
  |---14---14---14-------11\9------14----14---14---11\9-|
  |---12---12---12--------9\7------12----12---12----9\7-|
  |-----------------------------------------------------|

  |-----------------------------------------------------|
  |-----------------------------------------------------|
  |----2-----2-----2----------------2-----2----222-22-2-|
 /|---------------------4\2-----------------------------|
| |-22-----------00--------------22----------0----------|
| |-------22----------44---------------22---------------|
|   ..    ..     ..   ..         ..    ..    .           (1x)
|
| |-----------------------------------------------------|
| |-----------------------------------------------------|
 \|-----------------------------------------------*strum|
  |---14---14---14------11\9-------14-----14---14---14*-|
  |---12---12---12-------9\7-------12-----12---12---12*-|
  |-----------------------------------------------------|


{Pre-Chorus 2}
"I'm a loose bolt..."
  |-----------------------------------------------------------------|
  |-----------------------------------------------------------------|
  |-------4~--------------6~--------------7~------------------------|
 /|-------5~--------------7~--------------9~------------------------| x2
| |-------5~--------------7~--------------9~------------------------|
| |-----------------------------------------------------------------|
|  1 + 2 + 3 + 4 + 1 + 2 + 3 + 4 + 1 + 2 + 3 + 4 + 1 + 2 + 3 + 4 +
|
| |----------------------------------------|
| |-----------8p7-5p3----------------------|
 \|--9p7-9p7------------4~-6~-7~~~---------| (x1)
  |----------------------------------------|
  |----------------------------------------|
  |----------------------------------------|

Walk-Up
  |----------------------------------------|
  |----------------------------------------|
  |----------------------------------------|
 /|----------------------------------------|
| |--------------444-55-7------------------|
| |--555-777-999---------------------------|
|
| Joe plays this live, but it's not on the CD. So if you have 2 guitarist, play this.
| |----------------------------------------|
| |--000-222-333-555-77-8------------------|
 \|----------------------------------------|
  |----------------------------------------|
  |----------------------------------------|
  |----------------------------------------|


{Chorus 2}
  |-------------------------------------------|
  |-------------------------------------------|
  |-------------------------------------------|
 /|-0000-5555-9999-7777--0000-5555-9999-7777--| 
| |-0000-5555-9999-7777--0000-5555-9999-7777--|
| |-0000-5555-9999-7777--0000-5555-9999-7777--|
|  
| |----------------------------------------------------|
| |--10-----8---7------------10-----8----7-------------|
 \|-----11----9---7--9--11------11-----9---7--9-11-----|
  |----------------------------------------------------|
  |-------------(play this guitar twice)---------------|
  |----------------------------------------------------|

  |-------------------------------------------|
  |-------------------------------------------|
  |-------------------------------------------|
 /|-0000-5555-9999-7777--4444-5555-9999-7777--|
| |-0000-5555-9999-7777--4444-5555-9999-7777--|
| |-0000-5555-9999-7777--4444-5555-9999-7777--|
|
| |----------------------------------------------------|
| |--10-----8---7------------10-----8----7-------------|
 \|-----11----9---7--9--11------11-----9---7--9-11-----|
  |----------------------------------------------------|
  |-------------(play again 2 times)-------------------|
  |----------------------------------------------------|


"Detox just to retox!"
  |----------------------------------------|
  |----------------------------------------|
  |--------------(fades out)---------------|
 /|--0~~~~~~~~~~~~~~~~---------------------|
| |--0~~~~~~~~~~~~~~~~---------------------|
| |--0~~~~~~~~~~~~~~~~---------------------|
|
| |----------------------------------------|
| |----------------------------------------|
 \|----------------------------------------|
  |--0~~~~~~~~~~~~~~~----------------------|
  |--0~~~~~~~~~~~~~~~----------------------|
  |--0~~~~~~~~~~~~~~~----------------------|

  |----------------------------------------|
  |-77777-777-777555---77777-777-777555----|
  |-77777-777-777777---77777-777-777777----|
 /|-00000-000-000000---00000-000-000000----|
| |----------------------------------------|
| |----------------------------------------|
|                                           (3x)
| |----------------------------------------|
| |----------------------------------------|
 \|----------------------------------------|
  |--~~~~~~~~~~~~--------------------------|
  |--~~~~~~~~~~~~--------------------------|
  |--~~~~~~~~~~~~--------------------------|


{Chorus 3} this is where the drum beat gets more heavy
  |--------------------------------------------|
  |--------------------------------------------|
  |--------------------------------------------|
 /|-0000-5555-9999-7777--0000-5555-9999-7-7-7--| 
| |-0000-5555-9999-7777--0000-5555-9999-7-7-7--|
| |-0000-5555-9999-7777--0000-5555-9999-7-7-7--|
|  
| |----------------------------------------------------|
| |--10-----8---7------------10-----8----7-------------|
 \|-----11----9---7--9--11------11-----9---7--9-11-----|
  |----------------------------------------------------|
  |--------------(play this guitar 2x)-----------------|
  |----------------------------------------------------|

  |-------------------------------------------|
  |-------------------------------------------|
  |-------------------------------------------|
 /|-0000-5555-9999-7777--4444-5555-9999-7777--|
| |-0000-5555-9999-7777--4444-5555-9999-7777--|
| |-0000-5555-9999-7777--4444-5555-9999-7777--|
|
| |----------------------------------------------------|
| |--10-----8---7------------10-----8----7-------------|
 \|-----11----9---7--9--11------11-----9---7--9-11-----|
  |----------------------------------------------------|
  |--------------(play this guitar 2x)-----------------|
  |----------------------------------------------------|

  |-----------------------|
  |-----------------------|
  |-----------------------|
 /|--4444-5555-9999-7777--|
| |--4444-5555-9999-7777--|
| |--4444-5555-9999-7777--|
|
| |----------------------------------------------------|
| |--10-----8---7------------10----8---10h12p10~-------|
 \|-----11----9---7--9--11------11---9-----------11-9--|
  |----------------------------------------------------|
  |-------------(play again once)----------------------|
  |----------------------------------------------------|

  |---------------------------------------------|
  |-77777-777-777555---77777-777-777555---------|
  |-77777-777-777777---77777-777-777777---------|
 /|-00000-000-000000---00000-000-000000--0~~~---|
| |--------------------------------------0~~~---|
| |--------------------------------------0~~~---|
|                                           
| |---------------------------------------------|
| |---------------------------------------------|
 \|---------------------------------------------|
  |-0~~~~~~~~~~~~------0~~~~~~~~~~~~------------|
  |-0~~~~~~~~~~~~------0~~~~~~~~~~~~------------|
  |-0~~~~~~~~~~~~------0~~~~~~~~~~~~------------|
Tap to rate this tab
 
# A B C D E F G H I J K L M N O P Q R S T U V W X Y Z