Song name
# A B C D E F G H I J K L M N O P Q R S T U V W X Y Z

Fall Out Boy - Take Over The Breaks Over tab

Notes:
* I'll do the timing for everything except for the lead solo part. It's too weird, 
just listen to it. It's not very hard.
*The first part of the solo has an extra lead part, which I've labeled "Guitar 3." 
This is optional, it sounds fine with or without it.
Intro
*Also, in the solo, I'll group all the lead parts together and all the rhythms 
together, as opposed to tabbing them simultaneously. This helps the solo read easier.

Guitar 1

   1   2   3 + 4 +   1 + 2 + 3   4   1   2   3 + 4 +   1 + 2 + 3   4
e|-----------------|---------------|-----------------|---------------|
B|-----------------|---------------|-----------------|---------------|
G|-----4-----4---4-|-----4---------|-----4-----4---4-|-----4-------2-|
D|-----------------|---------------|-----------------|-------------4-|
A|-4-------4---4---|-------------5-|-----------------|-2-2---2-2---3-|
E|-----------------|-4-4---4-4---3-|-2-------2---2---|---------------|
                                                                     |
Guitar 2                                                             | x2
                                                                     |
                             3   4                             3   4 |
e|----------------|----------------|-----------------|---------------|
B|----------------|----------------|-----------------|---------------|
G|----------------|----------------|-----------------|---------------|
D|----------------|----------------|-----------------|---------------|
A|----------------|----------------|-----------------|---------2---3-|
E|----------------|----------4---3-|-----------------|---------------|


Verse
(Baby seasons change, but people don't...)

Guitar 1

   1   2   3 + 4 +   1 + 2 + 3   4   1   2   3 + 4 +   1 + 2 + 3   4
e|-----------------|---------------|-----------------|---------------|
B|-----------------|---------------|-----------------|---------------|
G|-----4-----4---4-|-----4---------|-----4-----4---4-|-----4-------2-|
D|-----------------|---------------|-----------------|-------------4-| x3
A|-4-------4---4---|-------------5-|-----------------|-2-2---2-2---3-|
E|-----------------|-4-4---4-4---3-|-2-------2---2---|---------------|

Guitar 2
(Enters 3rd time)

   1 + 2 + 3 + 4 +   1 + 2 + 3 + 4   1 + 2 + 3 + 4 +   1 + 2 + 3 + 4
e|-----------------|---------------|-----------------|---------------|
B|-----------------|---------------|-----------------|---------------|
G|-----------------|---------------|-----------------|---------------|
D|-6-6-6-6-6-6-6---|---------------|-----------------|-4-4-4-4-4---4-|
A|-4-4-4-4-4-4-4-0-|-6-6-6-6-6---5-|-4-4-4-4-4-4-4---|-2-2-2-2-2-0-3-|
E|-----------------|-4-4-4-4-4-0-3-|-2-2-2-2-2-2-2-0-|---------------|
pm . . . . . . . .   . . . . . .     . . . . . . . .   . . . . . . 


Guitar 1

   1   2   3 + 4 +   1 + 2 + 3   4   1   2   3 + 4 +   1 + 2 + 3 + 4  
e|-----------------|---------------|-----------------|---------------|
B|-----------------|---------------|-----------------|---------------|
G|-----4-----4---4-|-----4---------|-----4-----4---4-|-----4---------|
D|-----------------|---------------|-----------------|-----------2-2-|
A|-4-------4---4---|-------------5-|-----------------|-2-2---2-2-2-2-|
E|-----------------|-4-4---4-4---3-|-2-------2---2---|-----------0-0-|

Guitar 2

   1 + 2 + 3 + 4 +   1 + 2 + 3 + 4   1 + 2 + 3 + 4 +   1 + 2 + 3 + 4 
e|-----------------|---------------|-----------------|---------------|
B|-----------------|---------------|-----------------|---------------|
G|-----------------|---------------|-----------------|---------------|
D|-6-6-6-6-6-6-6-6-|---------------|-----------------|-4-4-4-4-4-2-2-|
A|-4-4-4-4-4-4-4-4-|-6-6-6-6-6---5-|-4-4-4-4-4-4-4---|-2-2-2-2-2-2-2-|
E|-----------------|-4-4-4-4-4-0-3-|-2-2-2-2-2-2-2-0-|-----------0-0-|
pm . . . . . . . .   . . . . . .     . . . . . . . .   . . . . 


Pre-Chorus
(wouldn't you rather be a widow...)

Guitar 1 & 2

   1   2 +   + 4 +   1 + 2 + 3   4   1   2 +   + 4 +   1 + 2   3 + 4 +
e|-----------------|---------------|-----------------|-----------------|
B|-5---5-5---5-5-5-|---------4-----|-----------------|-----------------|
G|-2---2-2---2-2-2-|-4-4-4-4-4---2-|-----------------|-6-6-6---6---4---|
D|-2---2-2---2-2-2-|-4-4-4---4---2-|-6---6-6---6-6---|-6-6-6---6---4---|
A|-0---0-0---0-0-0-|-2-2-2---2---0-|-6---6-6---6-6---|-4-4-4---4-0-2-0-|
E|-----------------|---------------|-4---4-4---4-4-0-|-4-4-4---4-0-2-0-|

   1   2 +   + 4 +   1 + 2 + 3   4   1   2 +   + 4 +   1 + 2 + 3   4
e|-----------------|---------------|-----------------|---------------|
B|-5---5-5---5-5-5-|---------------|-----------------|---------------|
G|-2---2-2---2-2-2-|-4-4-4-4-4---2-|-----------------|-6-6-6-6-4---4-|
D|-2---2-2---2-2-2-|-4-4-4-4-4---2-|-6---6-6---6-6-6-|-6-6-6-6-4---4-|
A|-0---0-0---0-0-0-|-2-2-2-2-2---0-|-6---6-6---6-6-6-|-4-4-4-4-2---2-|
E|-----------------|-2-2-2-2-2-----|-4---4-4---4-4-4-|-4-4-4-4-2---2-|


Interlude
(we don't fight fair...)

Guitar 1

   1   2   3 + 4 +   1 + 2 + 3   4   1   2   3 + 4 +   1 + 2 + 3   4
e|-----------------|---------------|-----------------|---------------|
B|-----------------|---------------|-----------------|---------------|
G|-----4-----4---4-|-----4---------|-----4-----4---4-|-----4-------2-|
D|-----------------|---------------|-----------------|-------------4-|
A|-4-------4---4---|-------------5-|-----------------|-2-2---2-2---3-|
E|-----------------|-4-4---4-4---3-|-2-------2---2---|---------------|
                                                                     |
Guitar 2                                                             | x2
                                                                     |
                             3   4                             3   4 |
e|----------------|----------------|-----------------|---------------|
B|----------------|----------------|-----------------|---------------|
G|----------------|----------------|-----------------|---------4---5-|
D|----------------|----------------|-----------------|---------x---x-|
A|----------------|----------------|-----------------|---------2---3-|
E|----------------|----------4---3-|-----------------|---------------|


Verse 2
(Say your head can be a prison...)

Guitar 1

   1   2   3 + 4 +   1 + 2 + 3   4   1   2   3 + 4 +   1 + 2 + 3   4
e|-----------------|---------------|-----------------|---------------|
B|-----------------|---------------|-----------------|---------------|
G|-----4-----4---4-|-----4---------|-----4-----4---4-|-----4-------2-|
D|-----------------|---------------|-----------------|-------------4-|
A|-4-------4---4---|-------------5-|-----------------|-2-2---2-2---3-|
E|-----------------|-4-4---4-4---3-|-2-------2---2---|---------------|

Guitar 2

   1   2   3   4    1   2   3   4   1   2   3   4    1   2   3   4  
e|----------------|---------------|----------------|----------------|
B|----------------|---------------|----------------|----------------|
G|-9---9---9---13-|-11--11--11--8/|-9---9---9---13-|-11--11--11--8/-|
D|-x---x---x---x--|-x---x---x---x-|-x---x---x---x--|-x---x---x---x--|
A|-7---7---7---11-|-9---9---9---6/|-7---7---7---11-|-9---9---9---6/-|
E|----------------|---------------|----------------|----------------|


Guitar 1

   1   2   3 + 4 +   1 + 2 + 3   4   1   2   3 + 4 +   1 + 2 + 3   4
e|-----------------|---------------|-----------------|---------------|
B|-----------------|---------------|-----------------|---------------|
G|-----4-----4---4-|-----4---------|-----4-----4---4-|-----4-------2-|
D|-----------------|---------------|-----------------|-------------4-|
A|-4-------4---4---|-------------5-|-----------------|-2-2---2-2---3-|
E|-----------------|-4-4---4-4---3-|-2-------2---2---|---------------|

Guitar 2

   1   2   3   4    1   2   3   4   1   2   3   4    1   2   3   4  
e|----------------|---------------|----------------|----------------|
B|----------------|---------------|----------------|----------------|
G|-9---9---9---13-|-11--11--11--8/|-9---9---9---13-|-11--11--11--14/|
D|-x---x---x---x--|-x---x---x---x-|-x---x---x---x--|-x---x---x---x--|
A|-7---7---7---11-|-9---9---9---6/|-7---7---7---11-|-9---9---9---12/|
E|----------------|---------------|----------------|----------------|

Guitar 1 & 2
(Don't pretend you ever forget 'bout me...)
(Guitar 1 slides down from 14x12 to 13x11 on the first beat, then doubles with Guitar 2)

   1 + 2 + 3 + 4 +   1 + 2 + 3 + 4   1 + 2 + 3 + 4 +   1 + 2 + 3 + 4
e|-----------------|---------------|-----------------|---------------|
B|-----------------|---------------|-----------------|---------------|
G|-----------------|---------------|-----------------|---------------|
D|-6-6-6-6-6-6-6---|---------------|-----------------|-4-4-4-4-4---4-|
A|-4-4-4-4-4-4-4-0-|-6-6-6-6-6---5-|-4-4-4-4-4-4-4---|-2-2-2-2-2-0-3-|
E|-----------------|-4-4-4-4-4-0-3-|-2-2-2-2-2-2-2-0-|---------------|
pm . . . . . . . .   . . . . . .     . . . . . . . .   . . . . . . 

Guitar 1

   1   2   3 + 4 +   1 + 2 + 3   4   1   2   3 + 4 +   1 + 2 + 3 + 4  
e|-----------------|---------------|-----------------|---------------|
B|-----------------|---------------|-----------------|---------------|
G|-----4-----4---4-|-----4---------|-----4-----4---4-|-----4---------|
D|-----------------|---------------|-----------------|-----------2-2-|
A|-4-------4---4---|-------------5-|-----------------|-2-2---2-2-2-2-|
E|-----------------|-4-4---4-4---3-|-2-------2---2---|-----------0-0-|

Guitar 2

   1 + 2 + 3 + 4 +   1 + 2 + 3 + 4   1 + 2 + 3 + 4 +   1 + 2 + 3 + 4 
e|-----------------|---------------|-----------------|---------------|
B|-----------------|---------------|-----------------|---------------|
G|-----------------|---------------|-----------------|---------------|
D|-6-6-6-6-6-6-6-6-|---------------|-----------------|-4-4-4-4-4-2-2-|
A|-4-4-4-4-4-4-4-4-|-6-6-6-6-6---5-|-4-4-4-4-4-4-4---|-2-2-2-2-2-2-2-|
E|-----------------|-4-4-4-4-4-0-3-|-2-2-2-2-2-2-2-0-|-----------0-0-|
pm . . . . . . . .   . . . . . .     . . . . . . . .   . . . . 


Pre-Chorus

Guitar 1
                          3   4      1           4    1    2    3   4
e|-----------------|---------------|----------------|------------------|
B|-----------------|---------------|----------------|-12---10---9------|
G|-----------------|------9--11/13-|-11----------12-|---------------11-|
D|-----------------|---------------|----------------|------------------|
A|-----------------|---------------|----------------|------------------|
E|-----------------|---------------|----------------|------------------|

Guitar 2

  1   2 +   + 4 +   1 + 2 + 3   4   1   2 +   + 4 +   1 + 2   3 + 4 +
e|-----------------|---------------|-----------------|-----------------|
B|-5---5-5---5-5-5-|---------4-----|-----------------|-----------------|
G|-2---2-2---2-2-2-|-4-4-4-4-4---2-|-----------------|-6-6-6---6---4---|
D|-2---2-2---2-2-2-|-4-4-4---4---2-|-6---6-6---6-6---|-6-6-6---6---4---|
A|-0---0-0---0-0-0-|-2-2-2---2---0-|-6---6-6---6-6---|-4-4-4---4-0-2-0-|
E|-----------------|---------------|-4---4-4---4-4-0-|-4-4-4---4-0-2-0-|

Guitar 1
   W                 H     3  4       W                W
e|-----------------|----------------|----------------|---------------|
B|-----------------|----------------|----------------|---------------|
G|-9~~-------------|-~~~---9--11/13-|-11-------------|---------------|
D|-----------------|----------------|----------------|---------------|
A|-----------------|----------------|----------------|---------------|
E|-----------------|----------------|----------------|---------------|

   1   2 +   + 4 +   1 + 2 + 3   4   1   2 +   + 4 +   1 + 2 + 3   
e|-----------------|---------------|-----------------|---------------|
B|-5---5-5---5-5-5-|---------------|-----------------|---------------|
G|-2---2-2---2-2-2-|-4-4-4-4-4---2-|-----------------|-6-6-6-6-4-----|
D|-2---2-2---2-2-2-|-4-4-4-4-4---2-|-6---6-6---6-6-6-|-6-6-6-6-4-----|
A|-0---0-0---0-0-0-|-2-2-2-2-2---0-|-6---6-6---6-6-6-|-4-4-4-4-2-----|
E|-----------------|-2-2-2-2-2-----|-4---4-4---4-4-4-|---------------|


Chorus
(We do it in the dark, with smiles on our faces...)

Guitar 1

   1     + 3   4 +   1 + 2 + 3 + 4 +   1     + 3   4 +   1 + 2 + 3   4
e|-----------------|-----------------|-----------------|---------------|
B|-----------------|-----------------|-----------------|---------------|
G|-4-----4-4---4-4-|-4-4-4-4-4-4-4-4-|-4-----4-4-------|---------------|
D|-2-----2-2---2-2-|-2-2-2-2-2-2-2-2-|-4-----4-4---4-4-|-4-4-4-4-4-----|
A|-----------------|-----------------|-2-----2-2---2-2-|-2-2-2-2-2---6-|
E|-----------------|-----------------|-----------------|-------------4-|
pm             . .   . . . . . . . .               . .   . . . . 

Guitar 2

   1     + 3                           1     + 3                3   4     
e|-----------------|-----------------|----------------|----------------|
B|-----------------|-----------------|----------------|----------------|
G|-----------------|-----------------|-4-----4-4------|---------4------|
D|-2-----2-2-------|-----------------|-4-----4-4------|---------4---6--|
A|-2-----2-2-------|-----------------|-2-----2-2------|---------2---6--|
E|-0-----0-0-------|-----------------|----------------|-------------4--|

Guitar 1

   1     + 3   4 +   1 + 2 + 3 + 4 +   1   2 + 3 + 4 +   1 + 2 + 3 +   + 
e|-----------------|-----------------|-----------------|-----------------|
B|-----------------|-----------------|-----------------|-----------------|
G|-----------------|-----------------|-----------------|-----------------|
D|-----------------|-----------------|-6---6-6-6-6-6-6-|-4-4-4-4-4-4---4-|
A|-7-----7-7---7-7-|-7-7-7-7-7-7-7---|-4---4-4-4-4-4-4-|-2-2-2-2-2-2---2-|
E|-5-----5-5---5-5-|-5-5-5-5-5-5-5-0-|-----------------|-----------------|
pm             . .   . . . . . . . .       . . . . . .   . . . . . 

Guitar 2


e|-----------------|-----------------|-----------------|-----------------|
B|-----------------|-----------------|-----------------|-----------------|
G|-----------------|-----------------|-6---------------|-----------4---4-|
D|-----------------|-----------------|-6---6-6-6-6-6-6-|-4-4-4-4-4-4---4-|
A|-7-----7-7-------|-------------x-x-|-4---4-4-4-4-4-4-|-2-2-2-2-2-2---2-|
E|-5-----5-5-------|-------------x-x-|-----------------|-----------------|
pm                                         . . . . . .   . . . . .

Guitar 1 & 2
(We do it in the dark...)

   1     + 3   4 +   1   2 + 3   4   1   2 + 3   4 +   1   2 + 3   4
e|-----------------|---------------|-----------------|---------------|
B|-----------------|---------------|-----------------|---------------|
G|-4-----4-4---4-4-|-4---4-4-4---4-|-4---4-4-4---4-4-|-4---4-4-4-----|
D|-2-----2-2---2-2-|-2---2-2-2---2-|-4---4-4-4---4-4-|-4---4-4-4---6-|
A|-2-----2-2---2-2-|-2---2-2-2---2-|-2---2-2-2---2-2-|-2---2-2-2---6-|
E|-0-----0-0---0-0-|-0---0-0-0---0-|-----------------|-------------4-|

   1     + 3   4 +   1   2 + 3   4 +   1   2 + 3 + 4 +   1 + 2 + 3 +   +
e|-----------------|-----------------|-----------------|-----------------|
B|-----------------|-----------------|-----------------|-----------5---5-|
G|-----------------|-----------------|-6---------------|-----------4---4-|
D|-7-----7-7---7-7-|-7---7-7-7-------|-6---------------|-----------4---4-|
A|-7-----7-7---7-7-|-7---7-7-7---x-4-|-4---4-4-4-4-4-4-|-2-2-2-2-2-2---2-|
E|-5-----5-5---5-5-|-5---5-5-5---x-4-|-4---4-4-4-4-4-4-|-2-2-2-2-2-------|
pm                                         . . . . . .   . . . . . 


Interlude 2
(Same as intro)

Guitar 1

   1   2   3 + 4 +   1 + 2 + 3   4   1   2   3 + 4 +   1 + 2 + 3   4
e|-----------------|---------------|-----------------|---------------|
B|-----------------|---------------|-----------------|---------------|
G|-----4-----4---4-|-----4---------|-----4-----4---4-|-----4-------2-|
D|-----------------|---------------|-----------------|-------------4-|
A|-4-------4---4---|-------------5-|-----------------|-2-2---2-2---3-|
E|-----------------|-4-4---4-4---3-|-2-------2---2---|---------------|
                                                                     
Guitar 2|                                                                    
                             3   4                             3   4 |
e|----------------|----------------|-----------------|---------------|
B|----------------|----------------|-----------------|---------------|
G|----------------|----------------|-----------------|---------------|
D|----------------|----------------|-----------------|---------------|
A|----------------|----------------|-----------------|---------2---3-|
E|----------------|----------4---3-|-----------------|---------------|


Guitar 1

   1   2   3 + 4 +   1 + 2 + 3   4   1   2   3 + 4 +         3 + 4 +  
e|-----------------|---------------|-----------------|---------------|
B|-----------------|---------------|-----------------|---------------|
G|-----4-----4---4-|-----4---------|-----4-----4---4-|---------------|
D|-----------------|---------------|-----------------|-------------4-|
A|-4-------4---4---|-------------5-|-----------------|-------4-6-7---|
E|-----------------|-4-4---4-4---3-|-2-------2---2---|---------------|
                                                                     
Guitar 2                                                             
                                                                     
                             3   4                     1 + 2 + 3 + 4 
e|----------------|----------------|-----------------|---------------|
B|----------------|----------------|-----------------|---------------|
G|----------------|----------------|-----------------|-------------4-|
D|----------------|----------------|-----------------|-4-4-4-4-4-4-4-|
A|----------------|----------------|-----------------|-2-2-2-2-2-2-2-|
E|----------------|----------4---3-|-----------------|---------------|
pm                                                     . . . . . .


Guitar Solo

Guitar 1

e|-----------------|----------------|-----------------|-----------------|
B|-----------------|----------------|-----------------|-----------------|
G|-----------------|----------------|-----------------|-----------------|
D|-7-----6-6-----4-|-6------7/9-7-6-|-----------------|---------------4-|
A|-----------------|----------*-*-*-|-6----6/7\---2/4-|---2-2---4-6-7---|
E|-----------------|----------------|-----------------|-----------------|


Guitar 3
(Other lead part, not necessary if you don't want to play it)

e|-----------------|----------------|-----------------|---------------|
B|-----------------|----------------|-----------------|---------------|
G|-----------------|----------------|-----------------|---------------|
D|-----------------|----------------|-----------------|-----------6-7-|
A|-----------------|----------------|-----------------|-------7-9-----|
E|-----------------|----------------|-----------------|---------------|

Guitar 1 

e|-----------------|----------------|-----------------|----------------|
B|-----------------|----------------|-----------------|----------------|
G|-6---------------|---------9------|-----------------|---11-----9-----|
D|-------9-9-----7-|-9---------11-9-|---------------9-|----------------|
A|-----------------|---------*--*-*-|-11----12--------|----------------|
E|-----------------|----------------|-----------------|----------------|

Guitar 3


e|-----------------|----------------|-----------------|----------------|
B|-----------------|----------------|-----------------|----------------|
G|-----------------|----------------|-----------------|----------------|
D|-7----6-6------4-|-6------7/9-7-6-|-------------6---|--9/11----9-----|
A|-----------------|----------------|-7------9--------|----------------|
E|-----------------|----------------|-----------------|----------------|


Guitar 1

e|-----------------|--------------------|-------------------|-------------|
B|----12----12-----|--12----------------|-----12-----12-----|----12--9br--|
G|-9------9------8-|-------0-11^12^11---|-----------------9-|(9)----------|
D|-------------0---|------------------9h|-11------11----0---|------0------|
A|-----------------|--------------------|---------------0---|-------------|
E|-----------------|--------------------|-------------------|-------------|

Guitar 1 

e|------------------|--------------|--------------|---------------------|
B|-----12----12-----|---12---------|--------------|---------------------|
G|-9-------9------8-|(8)-----11br--|--------------|---------------------|
D|--------------0---|------0-------|-11/4\13/4\14\|-4/16-16-16-16-16----|
A|------------------|--------------|--------------|------------------0--|
E|------------------|--------------|--------------|------------------0--|

Guitar 2

Guitar 2 

   1   2   3 + 4 +      + 2 + 3 + 4   1   2   3 + 4 +     + 2 + 3   4 
e|-----------------|----------------|-----------------|---------------|
B|-----------------|----------------|-----------------|---------------|
G|-2---2---2-2---4-|----4-4-4-4-4-2-|---------------6-|---6-6-6-6---4-|
D|-2---2---2-2---4-|----4-4-4-4-4-2-|-6---6---6-6---6-|---6-6-6-6---4-|  
A|-0---0---0-0-x-2-|----2-2-2-2-2-0-|-6---6---6-6---4-|---4-4-4-4---2-|
E|-------------x---|----------------|-4---4---4-4-0---|---------------|

Repeat ths 4 times through the solo, except the fourth time, replace the last 2 measures with

   1   2 +   + 4   1 + 2 + 3 + 4 +
e|---------------|-----------------|
B|---------------|-----------------|
G|-------------6-|-6-6-6-6-4-4-4-4-|
D|-6---6-6-----6-|-6-6-6-6-4-4-4-4-|
A|-6---6-6---x-4-|-4-4-4-4-2-2-2-2-|
E|-4---4-4---x---|-----------------|


Chorus
(we do it in the dark...)

Guitar 1

   1     + 3     +   1     + 3     +   1     + 3     +   1     + 3   4
e|-----------------|-----------------|-----------------|---------------|
B|-----------------|---------------4-|-4-----4-4-----4-|-4-----4-4-----|
G|-4-----4-4-----4-|-4-----4-4-----4-|-4-----4-4-----4-|-4-----4-4-----|
D|-2-----2-2-----2-|-2-----2-2-----4-|-4-----4-4-----4-|-4-----4-4-----|
A|-----------------|---------------2-|-2-----2-2-----2-|-2-----2-2-----|
E|-----------------|-----------------|-----------------|-------------4-|

Guitar 2

e|---------------------------------------------------------------------|
B|-5~~~----------------------------------------------------------------|
G|-4~~~----------------------------------------------------------------|
D|-2~~~----------------------------------------------------------------|
A|-2~~~----------------------------------------------------------------|
E|-0~~~----------------------------------------------------------------|

Guitar 1


e|-----------------|-----------------|-----------------|-----------------|
B|-----------------|-----------------|-----------------|-----------------|
G|-----------------|---------------6-|-6-----6-6-----4-|-4-----4-4-----4-|
D|-7-----7-7-----7-|-7-----7-7-----6-|-6-----6-6-----4-|-4-----4-4-----2-|
A|-7-----7-7-----7-|-7-----7-7-----4-|-4-----4-4-----2-|-2-----2-2-------|
E|-5-----5-5-----5-|-5-----5-5-------|-----------------|-----------------|

Guitar 2 continues to ring out the previous chord.


Guitar Solo 2 (the mini one. I'll format it the same as the first one.)


Guiitar 1


                    (triplets)                                      4
e|----------------|-----------------------------|-----------|-----------|
B|----------------|------------9-10-9-----------|-----------|-------7/9-|
G|----------------|-----9-9-11--------11-9------|-----------|-----------|
D|----------------|-9h11-------------------11-9-|-9~~~------|-----------|
A|----------------|-----------------------------|-----------|-----------|
E|----------------|-----------------------------|-----------|-----------|

Guitar 3

                    (triplets)                                      4
e|----------------|------------------------------|----------|-----------|
B|----------------|------------------------------|----------|-----------|
G|----------------|-------------9-11-9-----------|----------|-----------|
D|----------------|-------9-9h11-------11-9------|----------|-------7/9-|
A|----------------|-11h12-------------------11-9-|-9~~~-----|-----------|
E|----------------|------------------------------|----------|-----------|

Guitar 1

e|----------------|---------------|--------------|------------------|
B|-9/10-----9-----|-------10/12---|-9h------10p9-|------------------|
G|----------------|-9-------------|--------------|-11~~~------------|
D|----------------|---------------|--------------|------------------|
A|----------------|---------------|--------------|------------------|
E|----------------|---------------|--------------|------------------|

Guitar 3

e|----------------|---------------|--------------|------------------|
B|----------------|---------------|--------------|------------------|
G|----------------|---------------|--------------|------------------|
D|----------9-----|---------------|--------------|------------------|
A|-9--------------|---------7/9---|-7~~----------|------------(7)\\\|
E|----------------|-7-------------|--------------|------------------|

Guitar 2

   1     + 3     +   1     + 3     +   1     + 3     +   1     + 3   4
e|-----------------|-----------------|-----------------|---------------|
B|-----------------|---------------4-|-4-----4-4-----4-|-4-----4-4-----|
G|-4-----4-4-----4-|-4-----4-4-----4-|-4-----4-4-----4-|-4-----4-4-----|
D|-2-----2-2-----2-|-2-----2-2-----4-|-4-----4-4-----4-|-4-----4-4-----|
A|-----------------|---------------2-|-2-----2-2-----2-|-2-----2-2-----|
E|-----------------|-----------------|-----------------|-------------4-|


e|-----------------|-----------------|-----------------|-----------------|
B|-----------------|-----------------|-----------------|-----------------|
G|-----------------|---------------6-|-6-----6-6-----4-|-4-----------4-4-|
D|-7-----7-7-----7-|-7-----7-7-----6-|-6-----6-6-----4-|-4---4-4-4-4-4-4-|
A|-7-----7-7-----7-|-7-----7-7-----4-|-4-----4-4-----2-|-2---2-2-2-2-2-2-|
E|-5-----5-5-----5-|-5-----5-5-------|-----------------|-2---------------|
pm                                                           . . . .

Outro-Chorus

Guitars 1 & 2

   1   2 + 3   4 +   1   2e+a  3   4   1   2 +a  3   4 +a   1   2 +a 3   4
e|-----------------|-----------------|--------------------|----------------|
B|-5---5-5-5---5-5-|-5---------5---5-|--------------------|----------------|
G|-4---4-4-4---4-4-|-4---------4---4-|-4---x-44--4---x-44-|-4---x-44-4-----|
D|-2---2-2-2---2-2-|-2---xxxx--2---2-|-4---x-44--4---x-44-|-4---x-44-4-----|
A|-2---2-2-2---2-2-|-2---xxxx--2---2-|-2---x-22--2---x-22-|-2---x-22-2---6-|
E|-0---0-0-0---0-0-|-0---xxxx--0---0-|--------------------|--------------4-|

   1   2 +a 3   4 +   1   2 + 3   4 +   1   2 + 3   4 +a   1   2 + 3 + 4 +
e|------------------|-----------------|------------------|-----------------|
B|-5-----55-5-----5-|-5-----5-5-------|------------------|-----------------|
G|-2---x-22-2---x-2-|-2---x-2-2---x-6-|-6---x-6-6---x-44-|-4---x-4-4-4-x-4-|
D|-2---x-22-2---x-2-|-2---x-2-2---x-6-|-6---x-6-6---x-44-|-4---x-4-4-4-x-4-|
A|-0---x-00-0---x-0-|-0---x-0-0---x-4-|-4---x-4-4---x-22-|-2---x-2-2-2-x-2-|
E|------------------|-----------------|------------------|-----------------|


   1     + 3   4 +   1   2 + 3   4   1   2 + 3   4 +   1   2 + 3   4
e|-----------------|---------------|-----------------|---------------|
B|-----------------|---------------|-----------------|---------------|
G|-4-----4-4---4-4-|-4---4-4-4---4-|-4---4-4-4---4-4-|-4---4-4-4-----|
D|-2-----2-2---2-2-|-2---2-2-2---2-|-4---4-4-4---4-4-|-4---4-4-4---6-|
A|-2-----2-2---2-2-|-2---2-2-2---2-|-2---2-2-2---2-2-|-2---2-2-2---6-|
E|-0-----0-0---0-0-|-0---0-0-0---0-|-----------------|-------------4-|

   1   2 + 3   4 +   1   2 + 3   4 +   1   2 + 3 + 4 +   1 + 2 + 3 +   +

e|-----------------|-----------------|-----------------|-----------------|
B|-----------------|-----------------|-----------------|-----------------|
G|-----------------|---------------x-|-6---------------|-----------4---4-|
D|-7---7-7-7---7-7-|-7---7-7-7---7-x-|-6---6-6-6-6-6-6-|-4-4-4-4-4-4---4-|
A|-7---7-7-7---7-7-|-7---7-7-7---7-x-|-4---4-4-4-4-4-4-|-2-2-2-2-2-2---2-|
E|-5---5-5-5---5-5-|-5---5-5-5---5---|-----------------|-----------------|
pm                                         . . . . . .   . . . . .





Legend:
br-bend and release (also notated by ^)
. - palm mutes
* - when under a note, part of a triplet
h - hammer-on
p - pull-off

I think that should do it. Have fun. Any questions, email me at 
jBracken_2010@yahoo.com. Do not spam.
Tap to rate this tab
 
# A B C D E F G H I J K L M N O P Q R S T U V W X Y Z