Song name
# A B C D E F G H I J K L M N O P Q R S T U V W X Y Z

Fall Out Boy - Golden tab

Capo 1st. It sounds a lot better to pluck the whole thing, even if it's kind of awkward 
to pluck three strings at a time.

Intro:
E----------------------|----------------------|
B---0-0-0-0-0-0-0-0----|---0-0-0-0-0-0-0-0----|
G---0-0-0-0-0-0-0-0----|---0-0-0-0-0-0-0-0----|
D----------------------|---2------------------|
A---3------------------|----------------------|
E----------------------|----------------------|x2

Verse:

E----------------------|----------------------|--------------------|
B---0-0-0-0-0-0-0-0----|---0-0-0-0-0-0-0-0----|---0-0-0-0-0-0-0-0--|
G---0-0-0-0-0-0-0-0----|---2-2-2-2-2-2-2-2----|---0-0-0-0-0-0-0-0--|
D---2-2-2-2-2-2-2-2----|---0-0-0-0-0-0-0-0----|---2-2-2-2-2-2-2-2--|
A---3------------------|----------------------|---3----------------|
E----------------------|---3------------------|--------------------|

---------------------|-------------------|-------------------|
--0-0-0--0-0-0--0-0--|--0-0-0-0-0-0-0-0--|--0-0-0-0-0-0-0-0--|
--0-0-0--0-0-0--0-0--|--0-0-0-0-0-0-0-0--|--2-2-2-2-2-2-2-2--|
--0-0-0--0-0-0--0-0--|--2-2-2-2-2-2-2-2--|--0-0-0-0-0-0-0-0--|
---------0------2----|--3----------------|-------------------|
--3------------------|-------------------|--3----------------|

-------------------|-------------------|
--0-0-0-0-0-0-0-0--|--0-0-0-0-0-0-0-0--|
--2-2-2-2-2-2-2-2--|--1-1-1-1-1-1-1-1--|
--1-1-1-1-1-1-1-1--|--2-2-2-2-2-2-2-2--|
--2----------------|-------------------|
-------------------|--0----------------| x2

Chorus:

-----------|-----------|-----------|-----------|     -------|-------|
--0-0-0-0--|--3-3-3-3--|--0-0-0-0--|--3-3-3-3--|     --3----|--0----|
--0-0-0-0--|--2-2-2-2--|--0-0-0-0--|--2-2-2-2--|     --2----|--0----|
--2-2-2-2--|--0-0-0-0--|--0-0-0-0--|--0-0-0-0--|     --0----|--2----|
-----------|-----------|-----------|-----------|     --2----|--3----|
--0--------|--2--------|--3--------|-----------| x3  -------|-------|
Tap to rate this tab
 
# A B C D E F G H I J K L M N O P Q R S T U V W X Y Z