Song name
# A B C D E F G H I J K L M N O P Q R S T U V W X Y Z

Fall Out Boy - Ginasfs tab

Legend:
~ - let it ring
x - dead string/mute
s - slide
b - bending
h - hammer on 

Tuning: Drop D

Intro pt.1:
e|-----------------|
B|-----------------|
G|-----------------| Then
D|-00-00--7--00-00-|
A|-00-00--7--00-00-|
D|-00-00--7--00-00-|

Intro pt.2:

Gtr.1
e|----------------------------------|
B|----------------------------------|
G|----------------------------------| 2x
D|-00-00-7-00-00--99-7-9-7-99-7-9---|
A|-00-00-7-00-00--99-7-9-7-99-7-9---|
D|-00-00-7-00-00--99-7-9-7-99-7-9---|

Gtr.2
e|----------------------------------------------------|
B|----------------------------------------------------|
G|-1111--9-11-7--1111--9-11----1111-9-11-14-1111-9-11-| 2x
D|--x-x--x-x--x---x-x--x-x-----x-x--x-x--x--x-x--x-x--|
A|--9-9--7-9--5---9-9--7-9-----9-9--7-9--12-9-9--7-9--|
D|----------------------------------------------------|

Verse 1: I've loved everything...

e|------------------------|
B|------------------------|
G|------------------------| Then
D|-0~~---9-7-5~~---7777---|
A|-0~~---9-7-5~~---7777---|
D|-0~~---9-7-5~~---7777---|

e|-----------------------------------------------------------------|
B|-----------------------------------------------------------------|
G|-----------------------------------------------------------------|
D|-00-00-7-00-00---99-99-7-99-99-7---55-4-5----55-4-5--00000-777---|
A|-00-00-7-00-00---99-99-7-99-99-7---55-4-5----55-4-5--00000-777---|
D|-00-00-7-00-00---99-99-7-99-99-7---55-4-5----55-4-5--00000-777---|

Pre Chorus: Things aren't the same anymore...

Gtr.1
e|-------------|
B|-------------|
G|-------------| 2x
D|-5555-7777---|
A|-5555-5555---|
D|-5555--------|

Gtr.2
e|-5-------5-----------------5-------5----------------------|
B|---5-7-----5-7---------------5-7-----5-7------------------|
G|-------7-------7-7-6-4-2--------7--------7--7-9-11-14-----|
D|-----------------x-x-x-x--------------------x-x--x-x------|
A|-----------------5-4-2-0--------------------5-7--9-12-----|
D|----------------------------------------------------------|

Chorus: Trade baby blues...

e|-------------------------------------------|
B|-------------------------------------------|
G|-444---------777----------444--------------|
D|-444---555---777---444----444---222---4~---|
A|-222---555---555---444----222---222---4~---|
D|-------555---------444----------222---4~---|

Gtr.2
e|--------------------------------------------------------------------|
B|--------------------------------------------------------------------|
G|--------------------------------------------------------------------|
D|-9-11-11s12-------12-14s16--------9-11-11s12-----8h9-8h9-8h9-8h9-8h9| x2
A|------------12~------------16~---------------12~--------------------|
D|--------------------------------------------------------------------|

Intro pt.2:

Gtr.1
e|----------------------------------|
B|----------------------------------|
G|----------------------------------| 2x
D|-00-00-7-00-00--99-7-9-7-99-7-9---|
A|-00-00-7-00-00--99-7-9-7-99-7-9---|
D|-00-00-7-00-00--99-7-9-7-99-7-9---|

Gtr.2
e|----------------------------------------------------|
B|----------------------------------------------------|
G|-1111--9-11-7--1111--9-11----1111-9-11-14-1111-9-11-| 2x
D|--x-x--x-x--x---x-x--x-x-----x-x--x-x--x--x-x--x-x--|
A|--9-9--7-9--5---9-9--7-9-----9-9--7-9--12-9-9--7-9--|
D|----------------------------------------------------|  

Verse 2: I've already given up...
Gtr. 2
e|----0------------0-------|-----0------------0-------|
B|-10---10-10---10---10-10-|--10---10-10---10---10-10-|
G|7--7-----7---7--7----7---|-6--6----6----6--6----6---|
D|-------------------------|--------------------------|
A|-------------------------|--------------------------|
D|-------------------------|--------------------------|

e|----0------------0-------|-----0-------|
B|-10---10-10---10---10-10-|--10---10-10-|
G|0--0----0---0-0----0---|-------------| (I think that's it)
D|-------------------------|-7--7----7---|
A|-------------------------|-------------|
D|-------------------------|-------------|


Gtr. 1
e|------------------------|
B|------------------------|
G|------------------------| Then
D|-0~~---9-7-5~~---7777---|
A|-0~~---9-7-5~~---7777---|
D|-0~~---9-7-5~~---7777---|

e|-----------------------------------------------------------------|
B|-----------------------------------------------------------------|
G|-----------------------------------------------------------------|
D|-00-00-7-00-00---99-99-7-99-99-7---55-4-5----55-4-5--00000-777---|
A|-00-00-7-00-00---99-99-7-99-99-7---55-4-5----55-4-5--00000-777---|
D|-00-00-7-00-00---99-99-7-99-99-7---55-4-5----55-4-5--00000-777---|

Pre-Chorus: Things aren't the same anymore...

Gtr.1
e|-------------|
B|-------------|
G|-------------| 2x
D|-5555-7777---|
A|-5555-5555---|
D|-5555--------|

Gtr.2
e|-5-------5-----------------5-------5----------------------|
B|---5-7-----5-7---------------5-7-----5-7------------------|
G|-------7-------7-7-6-4-2--------7--------7--7-9-11-14-----|
D|-----------------x-x-x-x--------------------x-x--x-x------|
A|-----------------5-4-2-0--------------------5-7--9-12-----|
D|----------------------------------------------------------|

Chorus: Trade baby blues...

e|-------------------------------------------|
B|-------------------------------------------|
G|-444---------777----------444--------------|
D|-444---555---777---444----444---222---4~---|
A|-222---555---555---444----222---222---4~---|
D|-------555---------444----------222---4~---|

Gtr.2
e|--------------------------------------------------------------------|
B|--------------------------------------------------------------------|
G|--------------------------------------------------------------------|
D|-9-11-11s12-------12-14s16--------9-11-11s12-----8h9-8h9-8h9-8h9-8h9| x2
A|------------12~------------16~---------------12~--------------------|
D|--------------------------------------------------------------------|

Intro pt.1:
e|-----------------|
B|-----------------|
G|-----------------| Then
D|-00-00--7--00-00-|
A|-00-00--7--00-00-|
D|-00-00--7--00-00-|

Intro pt.2:

Gtr.1
e|----------------------------------|
B|----------------------------------|
G|----------------------------------| 2x
D|-00-00-7-00-00--99-7-9-7-99-7-9---|
A|-00-00-7-00-00--99-7-9-7-99-7-9---|
D|-00-00-7-00-00--99-7-9-7-99-7-9---|

Gtr.2
e|----------------------------------------------------|
B|----------------------------------------------------|
G|-1111--9-11-7--1111--9-11----1111-9-11-14-1111-9-11-| 2x
D|--x-x--x-x--x---x-x--x-x-----x-x--x-x--x--x-x--x-x--|
A|--9-9--7-9--5---9-9--7-9-----9-9--7-9--12-9-9--7-9--|
D|----------------------------------------------------|

Bridge: Born under a bad sign...
Gtr.1
e|-------------|
B|-------------|
G|------7~-----| 4x
D|-5~---7~--7~-|
A|-5~---5~--7~-|
D|-5~-------7~-|

Gtr.2

e|-5-------5-------|
B|---5-7-----5-7---|
G|-------7-------7-| x16
D|-----------------|
A|-----------------|
D|-----------------|


Chorus: Trade bay blues...
Gtr.1
e|--------------------------------------------|
B|--------------------------------------------|
G|-4444-------77777---------4444--------------| 2x
D|-4444-55555-77777-44444---4444-2222-44444---|
A|-2222-55555-55555-44444---2222-2222-44444---|
D|------55555-------44444--------2222-44444---|

Gtr.2:

e|-------------------|
B|-------------------|
G|-777--999--11--14--|
D|-xxx--xxx--x---x---|
A|-555--777--9---12--|
D|-------------------|


e|-------------------|
B|-------------------|
G|-777--999--11--6---|
D|-xxx--xxx--x---x---|
A|-555--777--9---4---|
D|-------------------|


e|---------------------------------------------------|
B|---------------------------------------------------|
G|-444--666--7--2----3h4-3h4-3h4-3h4-3h4-3h4-3h4-3h4-|
D|-xxx--xxx--x--x------------------------------------|
A|-222--444--5--0------------------------------------|
D|---------------------------------------------------|

or more simply

e|----------------------|
B|----------------------|
G|----------------------|
D|-121212-141414-16s19--|
A|----------------------|
D|----------------------|

e|----------------------|
B|----------------------|
G|----------------------|
D|-121212-141414-16s11--|
A|----------------------|
D|----------------------|

e|-------------------------------------|
B|-------------------------------------|
G|-------------------------------------|
D|-999-111111-12-7--8h9-8h9-8h9-8h9-8h9|
A|-------------------------------------|
D|-------------------------------------|


Outro:
e|---------------------|
B|---------------------|
G|---------------------|
D|-0~--5-0~--5-0~--7-0-|
A|-0~--5-0~--5-0~--7-0-|
D|-0~--5-0~--5-0~--7-0-|
Tap to rate this tab
# A B C D E F G H I J K L M N O P Q R S T U V W X Y Z