Song name
# A B C D E F G H I J K L M N O P Q R S T U V W X Y Z

Fall Out Boy - The Shipped Gold Standard tab

hey guys, i was looking around and i noticed that some of these tabs were close, 
but not 100 perent. i know this song is 100 percent. please review and rate please. :)
        Name: Joe Davis              For suggestions email me: joeydavis83@gmail.com


GUITAR 1: Joe
GUITAR 2: Patrick

Key:
/= slide
x= mute note
^= harmonic

GUITAR 1:
intro

e|---------------------------------------------------------------------------------|
B|---------------------------------------------------------------------------------|
G|---------------------------------------------------11-11-------11-11-----11-9-8--|
D|--------11-11-------------------13-13/-------------------------------------------|
A|-9-9-9-9-----9-9-11-11-11-11/---------11/-7-7-7-7--------7-7--------7-7----------|
E|---------------------------------------------------------------------------------|

GUITAR 2:

e|----------------------------------------------------------------------------------|
B|----------------------------------------------------------------------------------|
G|----------------------------------------------------------------------------------|
D|------------------------------------------------4-4--------4-4---------4-2-1------|
A|----------4-4---------------6-6---------------------------------------------------|
E|-2-2-2-2------2-2-4-4-4-4-------4-4--0-0-0-0---------0-0--------0-0---------------|


BOTH GUITARS:
verse

e|------------------------|
B|------------------------|
G|-4----4----4----4----4--|     repeat 2 times
D|-4----4----4----4----4--|
A|-x----x----x----x----2--|
E|-4----4----4----4----0--|

verse (cont.)
(You can still play the verse above, this is more GUITAR 3.)
e|------------------------|
B|------------------------|
G|-8--8----8----8----4----|      repeat 2 times
D|-x--x----x----x----x----|
A|-6--6----6----6----2----|
E|------------------------|

Pre-chorus
GUITAR 1:
e|--------------------------------------------------x--x--x-|-----------------------|
B|--------------------------------------------------x--x--x-|-9-9-9-9-9-9-9-9-9-9-9-|
G|--------------------------------------------------x--x--x-|-x-x-x-x-x-x-x-x-x-x-x-|
D|----------11-11-------------------13-13-----------x--x--x-|-6-6-6-6-6-6-6-6-6-6-6-|
A|-9-9-9-9---------9-9-11-11-11-11-------11-11------x--x--x-|-----------------------|
E|----------------------------------------------12--x--x--x-|-----------------------|

Pre-chorus
GUITAR 2:
e|---------------------------------------------------x---x---x-|
B|---------------------------------------------------x---x---x-|
G|---------------------------------------------------x---x---x-|
D|---------------------------------------------------x---x---x-|
A|---------4-4-------------6-6-----------------------x---x---x-|
E|-2-2-2-2-----2-2-4-4-4-4----4-4-0------------------x---x---x-|

chorus
GUITAR 3:
e|--------------------------------------------------------------------------|
B|--------------------------------------------------------------------------|
G|----8---8---8--8--8--8---9----9---9--9--9--9---11--11---11--11--11----11--|
D|----x---x---x--x--x--x---x----x---x--x--x--x----x---x----x---x---x-----x--|
A|----6---6---6--6--6--6---7----7---7--7--7--7----9---9----9---9---9-----9--|
E|--------------------------------------------------------------------------|

-----------------------------|
-----------------------------|
---6--6--6--6---6-----6/-8---|
---x--x--x--x---x-----x--x---|
---4-- 4--4--4---4----4/--4--|
-----------------------------|



chorus
BOTH GUITARS:
e|----------------------------------------------------------|
B|----------------------------------------------------------|
G|--------------------------------4-4--4-4-4----------------|
D|-6--6--6---6--2--2--2--2--2--2--4-4--4-4-4-4-4-4-4-4-4- --|
A|-6--6--6---6--2--2--2--2--2--2--2-2--2-2-2-4-4-4-4-4-4----|
E|-4--4--4---4--0--0--0--0--0--0-------------2-2-2-2-2-2----|

Bridge
BOTH GUITARS:
e|---------------------|
B|---------------------|
G|---------------------|
D|--6--x-x--x-x-x------|
A|--6--x-x--x-x-x------|
E|--4--6-6--6-6-6------|

ending
e|----------------|
B|----------------|
G|-4-4-4-4-4-4-4--|
D|-4-4-4-4-4-4-4--|
A|-x-x-x-x-x-2-2--|
E|-4-4-4-4-4-0-0--|

Thats it! really pretty easy, hope you enjoyed it!
Tap to rate this tab
# A B C D E F G H I J K L M N O P Q R S T U V W X Y Z