Song name
# A B C D E F G H I J K L M N O P Q R S T U V W X Y Z

Fall Out Boy - The Patron Saint Of Liars And Fakes tab

-------------------------------------------------------------------------------
             The Patron Saint of Liars and Fakes - Fall Out Boy
-------------------------------------------------------------------------------
Tabbed by: somedayishere

Tuning: Drop D (low to high: DADGBe)

*** Pay close attention to Repeat signs so it is less confusing ***

Intro:

Guitar 1 [x4]
|--------------------------------------------------------------------------|
|--------------------------------------------------------------------------|
|-----3---2---3-----5-----3---2------------5-----------5-----------------.-|
|-----3---3---3-----3-----3---3------3-2h3-------3-2h3-------------------.-|
|-1-1---1---1---1-1---1-1---1----------------------------------------------|
|--------------------------------3-3---------3-3---------------------------|
  * *   *   *   * *   * *   *    * *         * *

Guitar 2 (starting on second repetition of Guitar 1) [x3]
|--------------------------------------------------------------------------|
|-----6---8------6---8------6---8------6---8-------------------------------|
|-------5---5-5----5---5-5----5---5-5----5---5-5-------------------------.-|
|------------------------------------------------------------------------.-|
|--------------------------------------------------------------------------|
|--------------------------------------------------------------------------|

Guitar 1
|-----------------------------|
|----------5/6-6-6-6-6-6-6----|
|-----------------------------|
|-0-0-0-0---------------------|
|-0-0-0-0---------------------|
|-0-0-0-0---------------------|
  * * * *

Guitar 2
|-----------------------------|
|-----------------------------|
|----------5-5-5-5-5-5-5-5----|
|-0-0-0-0---------------------|
|-0-0-0-0---------------------|
|-0-0-0-0---------------------|
  * * * *

Verse: [x2]

Both guitars (second time, end seven notes short)
|--------------------------------------------------------------------------|
|--------------------------------------------------------------------------|
|---------------------------------2-2-2-2-2-2-2-2-3-3-3-3-3-3-3-3----------|
|-3-3-3-3-3-3-3-3-2-2-2-2-2-2-2-2-2-2-2-2-2-2-2-2-3-3-3-3-3-3-3-3----------|
|-3-3-3-3-3-3-3-3-3-3-3-3-3-3-3-3-0-0-0-0-0-0-0-0-1-1-1-1-1-1-1-1----------|
|-3-3-3-3-3-3-3-3-2-2-2-2-2-2-2-2------------------------------------------|

|--------------------------------------------------------------------------|
|--------------------------------------------------------------------------|
|---------------------------------3-3-3-3-3-3-3-3-3-3-3-3-3-3-3-3--------.-|
|-3-3-3-3-3-3-3-3-2-2-2-2-2-2-2-2-3-3-3-3-3-3-3-3-3-3-3-3-3-3-3-3--------.-|
|-3-3-3-3-3-3-3-3-3-3-3-3-3-3-3-3-1-1-1-1-1-1-1-1-1-1-1-1-1-1-1-1----------|
|-3-3-3-3-3-3-3-3-2-2-2-2-2-2-2-2------------------------------------------|

Chorus: [x2]

Guitar 1
|------------------------------------------------|
|------------------------------------------------|
|-10-10-10-10-10-10-10-9--10-10-10-10-10-10-10-12|
|-x--x--x--x--x--x--x--x--x--x--x--x--x--x--x--x-|
|-8--8--8--8--8--8--8--7--8--8--8--8--8--8--8--10|
|------------------------------------------------|

Guitar 2
|------------------------------------------------|
|------------------------------------------------|
|------------------------------------------------|
|-3--3--3--3--3--3--3--3--3--3--3--3--3--3--3--3-|
|-3--3--3--3--3--3--3--3--3--3--3--3--3--3--3--3-|
|-3--3--3--3--3--3--3--3--3--3--3--3--3--3--3--3-|

Guitar 1
|------------------------------------------------|
|------------------------------------------------|
|-14-14-14-14-14-14-14-14-12-12-12-12-12/14\12-10|
|-x--x--x--x--x--x--x--x--x--x--x--x--x--x--x--x-|
|-12-12-12-12-12-12-12-12-10-10-10-10-10/12\10-8-|
|------------------------------------------------|

Guitar 2
|------------------------------------------------|
|------------------------------------------------|
|-7--7--7--7--7--7--7--7--5--5--5--5--5--5--5--5-|
|-7--7--7--7--7--7--7--7--5--5--5--5--5--5--5--5-|
|-5--5--5--5--5--5--5--5--3--3--3--3--3--3--3--3-|
|------------------------------------------------|

Guitar 1
|------------------------------------------------|
|------------------------------------------------|
|-10-10-10-10-10-10-10-9--10-10-10-10-10-10-10-12|
|-x--x--x--x--x--x--x--x--x--x--x--x--x--x--x--x-|
|-8--8--8--8--8--8--8--7--8--8--8--8--8--8--8--10|
|------------------------------------------------|

Guitar 2
|------------------------------------------------|
|------------------------------------------------|
|------------------------------------------------|
|-3--3--3--3--3--3--3--3--3--3--3--3--3--3--3--3-|
|-3--3--3--3--3--3--3--3--3--3--3--3--3--3--3--3-|
|-3--3--3--3--3--3--3--3--3--3--3--3--3--3--3--3-|

Guitar 1
|--------------------------------------------------|
|--------------------------------------------------|
|-12-12-------------------14-14-14-14-12-12-10-10-.|
|-x--x--------------------x--x--x--x--x--x--x--x--.|
|-10-10-------------------12-12-12-12-10-10-8--8---|
|--------------------------------------------------|

Guitar 2
|--------------------------------------------------|
|--------------------------------------------------|
|-5--5--------------------5--5--5--5--5--5--5--5--.|
|-5--5--------------------5--5--5--5--5--5--5--5--.|
|-3--3--------------------3--3--3--3--3--3--3--3---|
|--------------------------------------------------|

Play intro riff twice

End with:
Guitar 1
|--------------------|
|--------------------|
|--------------------|
|-3\\----x-x-x-x-----|
|-3\\----x-x-x-x-----|
|-3\\----x-x-x-x-----|

Repeat Verse

Repeat Chorus

Altered Chorus:
First half is the same as normal
Second half continues as follows:

Guitar 1
|-----------------------------------------------------------------|
|---------6---------------6---------------6---------------6-------|
|---5---5---5---5---5---5---5---5---5---5---5---5---5---5---5---5-|
|-3---3-------3---3---3-------3---3---3-------3---3---3-------3---|
|-----------------------------------------------------------------|
|-----------------------------------------------------------------|

Guitar 2
|-----------------------------------------------------------------|
|-----------------------------------------------------------------|
|---------------------------------------------------5-5-5-5-5-5-5-|
|---------------------------------7-7-7-7-7-7-7-7-5-5-5-5-5-5-5-5-|
|-3-3-3-3-3-3-3-3-3-3-3-3-3-3-3-3-5-5-5-5-5-5-5-5-3-3-3-3-3-3-3-3-|
|-3-3-3-3-3-3-3-3-3-3-3-3-3-3-3-3---------------------------------|
  * * * * * * * * * * * * * * * * * * * * * * * * *

Interlude:

Guitar 1 (after 2 measures)
|-5-----6-5---5-----6-5---5-----6-5---5-----6-5---5-----6-5---5-----6-5----|
|---6-------6---6-------6---6-------6---6-------6---6-------6---6-------6--|
|-----5-----------5-----------5-----------5-----------5-----------5--------|
|--------------------------------------------------------------------------|
|--------------------------------------------------------------------------|
|--------------------------------------------------------------------------|

Guitar 2 (let ring)
|----------------|
|----------------|
|----------------|
|-3--------------|
|-3--------------|
|-3--------------|

Play intro riff 4 times
End on:

Guitar 1
|------------------------------|
|----------5/6-6-6-6-6-6-6-----|
|------------------------------|
|-0-0-0-0------------------x-0-|
|-0-0-0-0------------------x-0-|
|-0-0-0-0------------------x-0-|
  * * * *

Guitar 2
|------------------------------|
|------------------------------|
|----------5-5-5-5-5-5-5-5-----|
|-0-0-0-0------------------x-0-|
|-0-0-0-0------------------x-0-|
|-0-0-0-0------------------x-0-|
  * * * *



I'm 98.3% positive that the rhythm guitar (Guitar 2) is correct.
The lead guitar (Guitar 1) should be spot-on.
Sorry if the bit about the "Altered Chorus" is confusing. If you listen to the song 
you'll figure out what I mean.

Transcribed by ear.

_____________________
Legend:

|  *   Palm mute
|  /   Slide up
|  \   Slide down
|  h   Hammer on
|  x   Mute

______________________
Tap to rate this tab
# A B C D E F G H I J K L M N O P Q R S T U V W X Y Z