Song name
# A B C D E F G H I J K L M N O P Q R S T U V W X Y Z

Fall Out Boy - Youre Crashing But Youre No Wave tab

Mainly only the Rhythm guitar, not real skilled at picking.

Intro
Gtr1
e|-------------------------------55555555-|
B|----55555555-66666666-88888888-xxxxxxxx-|
G|-xx-77777777-77777777-77777777-77777777-|
D|-xx-xxxxxxxx-xxxxxxxx-xxxxxxxx-xxxxxxxx-|
A|-xx-55555555-55555555-55555555-55555555-|
E|----------------------------------------|

Gtr2
e|----------------------------------------|
B|----------------------------------------|
G|-xx-77777777-77777777-77777777-77777777-|
D|-xx-xxxxxxxx-xxxxxxxx-xxxxxxxx-xxxxxxxx-|
A|-xx-55555555-55555555-55555555-55555555-|
E|----------------------------------------|

Verse
Gtr1
e|----------------------------------------|
B|----------------------------------------|
G|----77777777-77777777-77777777-55554444-|
D|----xxxxxxxx-xxxxxxxx-xxxxxxxx-xxxxxxxx-|
A|----55555555-55555555-55555555-33332222-|
E|----------------------------------------|x2

e|----------------------------------------|
B|----------------------------------------|
G|----77777777-77777777-77777777-7~---xxxx|
D|----xxxxxxxx-xxxxxxxx-xxxxxxxx-x----xxxx|
A|----55555555-55555555-55555555-5~---xxxx|
E|----------------------------------------|

Gtr2
Comes in on 2nd to last measure
e|----------------|------------------|
B|-6--------------|-6----------------|
G|---7--5-4h5p4/2-|---7--5-4h5p4/2~~-|
D|----------------|------------------|
A|----------------|------------------|
E|----------------|------------------|

Pre-Chorus
e|-----------------------------------------------|
B|-----------------------------------------------|
G|77777777-10-77777777-10-77777777-10------------|
D|77777777-x--77777777-x--77777777-x--5553333----|
A|55555555-8--55555555-8--55555555-8--5553333----|
E|------------------------------------3331111----|x2

Chorus
e|----------------------------------------|
B|----------------------------------------|
G|----------------------------------------|
D|88888888-33333333-555555578888----------|
A|88888888-33333333-555555578888-----5-8--|
E|66666666-11111111-333333356666-5-8------|

e|----------------------------------------|
B|----------------------------------------|
G|----------------------------------------|
D|88888888-33333333-555555578888----------|
A|88888888-33333333-555555578888-5-3-5-3--|
E|66666666-11111111-333333356666----------|

Post Chorus
Gtr1
e|-------------------------------55555555-|
B|----55555555-66666666-88888888-xxxxxxxx-|
G|-xx-77777777-77777777-77777777-77777777-|
D|-xx-xxxxxxxx-xxxxxxxx-xxxxxxxx-xxxxxxxx-|
A|-xx-55555555-55555555-55555555-55555555-|
E|----------------------------------------|

Gtr2
e|----------------------------------------|
B|----------------------------------------|
G|-xx-77777777-77777777-77777777-77777777-|
D|-xx-xxxxxxxx-xxxxxxxx-xxxxxxxx-xxxxxxxx-|
A|-xx-55555555-55555555-55555555-55555555-|
E|----------------------------------------|

Verse
Gtr1
e|----------------------------------------|
B|----------------------------------------|
G|----77777777-77777777-77777777-5x-------|
D|----xxxxxxxx-xxxxxxxx-xxxxxxxx-xx-------|
A|----55555555-55555555-55555555-3x-------|
E|----------------------------------------|

e|----------------------------------------|
B|----------------------------------------|
G|----77777777-77777777-77777777-7~---xxxx|
D|----xxxxxxxx-xxxxxxxx-xxxxxxxx-x----xxxx|
A|----55555555-55555555-55555555-5~---xxxx|
E|----------------------------------------|


Gtr2
Comes in on 2nd to last measure
e|----------------|------------------|
B|-6--------------|-6----------------|
G|---7--5-4h5p4/2-|---7--5-4h5p4/2~~-|
D|----------------|------------------|
A|----------------|------------------|
E|----------------|------------------|

Pre-Chorus
e|-----------------------------------------------|
B|-----------------------------------------------|
G|77777777-10-77777777-10-77777777-10------------|
D|77777777-x--77777777-x--77777777-x--5553333----|
A|55555555-8--55555555-8--55555555-8--5553333----|
E|------------------------------------3331111----|x2

Chorus
e|----------------------------------------|
B|----------------------------------------|
G|----------------------------------------|
D|88888888-33333333-555555578888----------|
A|88888888-33333333-555555578888-----5-8--|
E|66666666-11111111-333333356666-5-8------|

e|----------------------------------------|
B|----------------------------------------|
G|----------------------------------------|
D|88888888-33333333-555555578888/---------|
A|88888888-33333333-555555578888/---------|
E|66666666-11111111-333333356666/---------|

Breakdown
Gtr1
e|----------------------------------------|
B|----------------------------------------|
G|----------------------------------------|
D|5555-53-3333-35-7777-77-5555-55---------|
A|5555-53-1111-13-5555-55-3333-33---------|
E|3333-31-1111-13-5555-55-3333-33---------|x2
   ...     ...     ...     ...

e|----------------------------------------|
B|----------------------------------------|
G|-xx-7-7-7-10--5/7/8/10\8\7\5------------|
D|-xx-x-x-x-x---xxxxxxxxxxxxxx------------|
A|-xx-5-5-5-8---3/5/6/8-\6\5\3------------|
E|----------------------------------------|

Chorus

Chorus
e|----------------------------------------|
B|----------------------------------------|
G|----------------------------------------|
D|88888888-33333333-555555578888----------|
A|88888888-33333333-555555578888-----5-8--|
E|66666666-11111111-333333356666-5-8------|

e|----------------------------------------|
B|----------------------------------------|
G|----------------------------------------|
D|88888888-33333333-555555578888-xxxxxxxx-|
A|88888888-33333333-555555578888-xxxxxxxx-|
E|66666666-11111111-333333356666-xxxxxxxx-|


Chorus
e|----------------------------------------|
B|----------------------------------------|
G|----------------------------------------|
D|88888888-33333333-555555578888----------|
A|88888888-33333333-555555578888-----5-8--|
E|66666666-11111111-333333356666-5-8------|

e|----------------------------------------|
B|----------------------------------------|
G|----------------------------------------|
D|88888888-33333333-555555578888----------|
A|88888888-33333333-555555578888-5-3-5-3--|
E|66666666-11111111-333333356666----------|

End
Tap to rate this tab
# A B C D E F G H I J K L M N O P Q R S T U V W X Y Z