Song name
# A B C D E F G H I J K L M N O P Q R S T U V W X Y Z

Fall Out Boy - My Songs Know What You Did In The Dark Light Em Up tab

Here is the tab of "My Songs Know What You Did in the Dark (Light Em Up)" by Fall Out 
Boy. Send me a message if you have some problems: arturo.forero97@gmail.com
Check my YouTube channel: http://www.youtube.com/user/ArturoForeroCR7?feature=mhee
Follow me on Twitter: https://twitter.com/arturosoysho

/ = slide up
\ = slide down
h = hammer-on
~ = vibrato
* = palm mute

Intro / lead guitar:
e|-----------------------------------------------------------------------------------------------------|
B|-----------------------------------------------------------------------------------------------------|
G|-/6h76h76h76h76h76h76h76h76h76h76h76h76h76h76h76h76h76h76h76h76h76h76h76h76h76h76h67h76h76h76h7\-----|
D|-----------------------------------------------------------------------------------------------------|
A|-----------------------------------------------------------------------------------------------------|
D|-----------------------------------------------------------------------------------------------------|

Verse 1 / lead guitar:
e|-----------------------------------------------------------------------------------------------------|
B|-----------------------------------------------------------------------------------------------------|
G|-----------------------------------------------------------------------------------------------------|
D|-----------------00-------------88-------------------------------------------------------------------|
A|-----------------00-------------88-------------------------------------------------------------------|
D|-121212121212121200121212\88888888888/121212121212121212121212121212\888888888888888/----------------|
    * * * * * * * *   * * * ***********  * * * * * * * * * * * * * * * ***************

e|-----------------------------------------------------------------------------------------------------|
B|-----------------------------------------------------------------------------------------------------|
G|-----------------------------------------------------------------------------------------------------|
D|-----------------00-------------88-------------------------------------------------------------------|
A|-----------------00-------------88-------------------------------------------------------------------|
D|-121212121212121200121212\88888888888/121212121212121212121212121212\888888888888888/----------------|
    * * * * * * * *   * * * ***********  * * * * * * * * * * * * * * * ***************

Verse 1 / rhythm guitar:
e|-----------------------------------------------------------------------------------------------------|
B|-----------------------------------------------------------------------------------------------------|
G|-----------------------------------------------------------------------------------------------------|
D|-00000000000088888888888800000000000000008888888888888888--------------------------------------------|
A|-00000000000088888888888800000000000000008888888888888888--------------------------------------------|
D|-00000000000088888888888800000000000000008888888888888888--------------------------------------------|
   ********    ********    ********************************

e|-----------------------------------------------------------------------------------------------------|
B|-----------------------------------------------------------------------------------------------------|
G|-----------------------------------------------------------------------------------------------------|
D|-00000000000088888888888800000000000000008888888888888888--------------------------------------------|
A|-00000000000088888888888800000000000000008888888888888888--------------------------------------------|
D|-00000000000088888888888800000000000000008888888888888888--------------------------------------------|
   ********    ********    ********************************

Pre-chorus / lead guitar:
e|-----------------------------------------------------------------------------------------------------|
B|-----------------------------------------------------------------------------------------------------|
G|-----------------------------------------------------------------------------------------------------|
D|---------------------------------------------------------12------------------------------------------|
A|---------------------------------12121212121212121212121212------------------------------------------|
D|-1212121212121212121212121212121212121212121212121212121212------------------------------------------|
    * * * * * * * * * * * * * * * * * * * * * *

Pre-chorus / rhythm guitar:
e|-----------------------------------------------------------------------------------------------------|
B|-----------------------------------------------------------------------------------------------------|
G|-----------------------------------------------------------------------------------------------------|
D|---------------------------------------------------------12------------------------------------------|
A|---------------------------------12121212121212121212121212------------------------------------------|
D|-1212121212121212121212121212121212121212121212121212121212------------------------------------------|
    * * * * * * * * * * * * * * * * * * * * * *

Chorus 1 / lead guitar:
e|-----------------------------------------------------------------------------------------------------|
B|-----------------------------------------------------------------------------------------------------|
G|-9/1010101010109/1010101010109/101010101010999999999/1010101010109/1010101010109/1010101010109999999-|
D|-----------------------------------------------------------------------------------------------------|
A|-7/-8-8-8-8-8-87/-8-8-8-8-8-87/-8-8-8-8-8-8777777777/-8-8-8-8-8-87/-8-8-8-8-8-87/-8-8-8-8-8-87777777-|
D|-----------------------------------------------------------------------------------------------------|

e|-/13--13--13--13-/13--13--13--13-/13--13--13--13-/12--12--12--12-------------------------------------|
B|----15--15--15------15--15--15------15--15--15------13--13--13---------------------------------------|
G|-----------------------------------------------------------------------------------------------------|
D|-----------------------------------------------------------------------------------------------------|
A|-----------------------------------------------------------------------------------------------------|
D|-----------------------------------------------------------------------------------------------------|

e|-/13--13--13--13-/13--13--13--13-/13--13--13--13-/12--12--12--12-------------------------------------|
B|----15--15--15------15--15--15------15--15--15------13--13--13---------------------------------------|
G|-----------------------------------------------------------------------------------------------------|
D|-----------------------------------------------------------------------------------------------------|
A|-----------------------------------------------------------------------------------------------------|
D|-----------------------------------------------------------------------------------------------------|

Chorus 1 / rhythm guitar:
e|-----------------------------------------------------------------------------------------------------|
B|-----------------------------------------------------------------------------------------------------|
G|-----------------------------------------------------------------------------------------------------|
D|-0000000088888888555555553333332~0000000088888888555555553333332~------------------------------------|
A|-0000000088888888555555553333332~0000000088888888555555553333332~------------------------------------|
D|-0000000088888888555555553333332~0000000088888888555555553333332~------------------------------------|

e|-----------------------------------------------------------------------------------------------------|
B|-----------------------------------------------------------------------------------------------------|
G|-----------------------------------------------------------------------------------------------------|
D|-0000000088888888555555553333332~0000000088888888555555553333332~------------------------------------|
A|-0000000088888888555555553333332~0000000088888888555555553333332~------------------------------------|
D|-0000000088888888555555553333332~0000000088888888555555553333332~------------------------------------|

Verse 2 / lead guitar:
e|-----------------------------------------------------------------------------------------------------|
B|-----------------------------------------------------------------------------------------------------|
G|-----------------------------------------------------------------------------------------------------|
D|-----------------00-------------88-------------------------------------------------------------------|
A|-----------------00-------------88-------------------------------------------------------------------|
D|-121212121212121200121212\88888888888/121212121212121212121212121212\888888888888888/----------------|
    * * * * * * * *   * * * ***********  * * * * * * * * * * * * * * * ***************

e|-----------------------------------------------------------------------------------------------------|
B|-----------------------------------------------------------------------------------------------------|
G|-----------------------------------------------------------------------------------------------------|
D|-----------------00----------------------------------------------------------------------------------|
A|-----------------00----------------------------------------------------------------------------------|
D|-121212121212121200121212\888888--121212121212121212121212121212\888888888888888/--------------------|
    * * * * * * * *   * * * ******   * * * * * * * * * * * * * * * ***************

Verse 2 / rhythm guitar:
e|-----------------------------------------------------------------------------------------------------|
B|-----------------------------------------------------------------------------------------------------|
G|-----------------------------------------------------------------------------------------------------|
D|-00000000000088888888888800000000000000008888888888888888--------------------------------------------|
A|-00000000000088888888888800000000000000008888888888888888--------------------------------------------|
D|-00000000000088888888888800000000000000008888888888888888--------------------------------------------|
   ********    ********    ********************************

e|-----------------------------------------------------------------------------------------------------|
B|-----------------------------------------------------------------------------------------------------|
G|-----------------------------------------------------------------------------------------------------|
D|-00000000000088888888--00000000000000008888888888888888----------------------------------------------|
A|-00000000000088888888--00000000000000008888888888888888----------------------------------------------|
D|-00000000000088888888--00000000000000008888888888888888----------------------------------------------|
   ********    ********  ********************************

Pre-chorus / lead guitar:
e|-----------------------------------------------------------------------------------------------------|
B|-----------------------------------------------------------------------------------------------------|
G|-----------------------------------------------------------------------------------------------------|
D|---------------------------------------------------------12------------------------------------------|
A|---------------------------------12121212121212121212121212------------------------------------------|
D|-1212121212121212121212121212121212121212121212121212121212------------------------------------------|
    * * * * * * * * * * * * * * * * * * * * * *

Pre-chorus / rhythm guitar:
e|-----------------------------------------------------------------------------------------------------|
B|-----------------------------------------------------------------------------------------------------|
G|-----------------------------------------------------------------------------------------------------|
D|---------------------------------------------------------12------------------------------------------|
A|---------------------------------12121212121212121212121212------------------------------------------|
D|-1212121212121212121212121212121212121212121212121212121212------------------------------------------|
    * * * * * * * * * * * * * * * * * * * * * *

Chorus 2 / lead guitar:
e|-----------------------------------------------------------------------------------------------------|
B|-----------------------------------------------------------------------------------------------------|
G|-9/1010101010109/1010101010109/101010101010999999999/1010101010109/1010101010109/1010101010109999999-|
D|-----------------------------------------------------------------------------------------------------|
A|-7/-8-8-8-8-8-87/-8-8-8-8-8-87/-8-8-8-8-8-8777777777/-8-8-8-8-8-87/-8-8-8-8-8-87/-8-8-8-8-8-87777777-|
D|-----------------------------------------------------------------------------------------------------|

e|-/13--13--13--13-/13--13--13--13-/13--13--13--13-/12--12--12--12-------------------------------------|
B|----15--15--15------15--15--15------15--15--15------13--13--13---------------------------------------|
G|-----------------------------------------------------------------------------------------------------|
D|-----------------------------------------------------------------------------------------------------|
A|-----------------------------------------------------------------------------------------------------|
D|-----------------------------------------------------------------------------------------------------|

e|-/13--13--13--13-/13--13--13--13-/13--13--13--13-/12--12--12--12-------------------------------------|
B|----15--15--15------15--15--15------15--15--15------13--13--13---------------------------------------|
G|-----------------------------------------------------------------------------------------------------|
D|-----------------------------------------------------------------------------------------------------|
A|-----------------------------------------------------------------------------------------------------|
D|-----------------------------------------------------------------------------------------------------|

Chorus 2 / rhythm guitar:
e|-----------------------------------------------------------------------------------------------------|
B|-----------------------------------------------------------------------------------------------------|
G|-----------------------------------------------------------------------------------------------------|
D|-0000000088888888555555553333332~0000000088888888555555553333332~------------------------------------|
A|-0000000088888888555555553333332~0000000088888888555555553333332~------------------------------------|
D|-0000000088888888555555553333332~0000000088888888555555553333332~------------------------------------|

e|-----------------------------------------------------------------------------------------------------|
B|-----------------------------------------------------------------------------------------------------|
G|-----------------------------------------------------------------------------------------------------|
D|-0000000088888888555555553333332~0000000088888888555555553333332~------------------------------------|
A|-0000000088888888555555553333332~0000000088888888555555553333332~------------------------------------|
D|-0000000088888888555555553333332~0000000088888888555555553333332~------------------------------------|

Chorus 3 / lead guitar:
e|-----------------------------------------------------------------------------------------------------|
B|-----------------------------------------------------------------------------------------------------|
G|-9/1010101010109/1010101010109/101010101010999999999/1010101010109/1010101010109/1010101010109999999-|
D|-----------------------------------------------------------------------------------------------------|
A|-7/-8-8-8-8-8-87/-8-8-8-8-8-87/-8-8-8-8-8-8777777777/-8-8-8-8-8-87/-8-8-8-8-8-87/-8-8-8-8-8-87777777-|
D|-----------------------------------------------------------------------------------------------------|

e|-/13--13--13--13-/13--13--13--13-/13--13--13--13-/12--12--12--12-------------------------------------|
B|----15--15--15------15--15--15------15--15--15------13--13--13---------------------------------------|
G|-----------------------------------------------------------------------------------------------------|
D|-----------------------------------------------------------------------------------------------------|
A|-----------------------------------------------------------------------------------------------------|
D|-----------------------------------------------------------------------------------------------------|

e|-/13--13--13--13-/13--13--13--13-/13--13--13--13-/12--12--12--12-------------------------------------|
B|----15--15--15------15--15--15------15--15--15------13--13--13---------------------------------------|
G|-----------------------------------------------------------------------------------------------------|
D|-----------------------------------------------------------------------------------------------------|
A|-----------------------------------------------------------------------------------------------------|
D|-----------------------------------------------------------------------------------------------------|

Chorus 3 / rhythm guitar:
e|-----------------------------------------------------------------------------------------------------|
B|-----------------------------------------------------------------------------------------------------|
G|-----------------------------------------------------------------------------------------------------|
D|-0000000088888888555555553333332~0000000088888888555555553333332~------------------------------------|
A|-0000000088888888555555553333332~0000000088888888555555553333332~------------------------------------|
D|-0000000088888888555555553333332~0000000088888888555555553333332~------------------------------------|

e|-----------------------------------------------------------------------------------------------------|
B|-----------------------------------------------------------------------------------------------------|
G|-----------------------------------------------------------------------------------------------------|
D|-0000000088888888555555553333332~0000000088888888555555553333332~------------------------------------|
A|-0000000088888888555555553333332~0000000088888888555555553333332~------------------------------------|
D|-0000000088888888555555553333332~0000000088888888555555553333332~------------------------------------|
Tap to rate this tab
 
# A B C D E F G H I J K L M N O P Q R S T U V W X Y Z