Song name
# A B C D E F G H I J K L M N O P Q R S T U V W X Y Z

Fall Out Boy - My Songs Know What You Did In The Dark Light Em Up tab

-------------------------------------------------------------------------------
    Light em Up/ My Songs Know What You Did In The Dark - Fall Out Boy
-------------------------------------------------------------------------------
This is my first ever going at writing tablelture, so please if any negative comments
please comment and any others all comment and tell me what you think. This is the full tab
to Light em up and is my version of it. I basically took all the different parts how I 
played it and put it into one and I have played it through multiple times and it sounds
good. Hope you enjoy it and it all sounds right to you aswell. Play it from the top 
downwards and take note on the times to play the chord/note, and things like PM etc. The 
Legend is at the bottom.

Tabbed by: Nathan Austin (14)
E-mail: nathan488@hotmail.co.uk

Tuning: E A D G B E (Standard)

Intro 1 (Played Before Intro 2)(6-12s)

e|---------------------------------------------------------------------------|
B|----10-8--8-10-8---8-10----------------------------------------------------|
G|--7-----10-------10----10-9-7----------------------------------------------|
D|---------------------------------------------------------------------------|
A|---------------------------------------------------------------------------|
E|---------------------------------------------------------------------------|

Intro 2 After Intro 1 (13s-19s)

e|---------------------------------------------------------------------------|
B|---------------------------------------------------------------------------|
G|--7~-(x28)-----------------------------------------------------------------|
D|---------------------------------------------------------------------------|
A|---------------------------------------------------------------------------|
E|---------------------------------------------------------------------------|
Verse Alternative 1 (Playthrough Verses Like This)(x4) (19s-43s)
e|---------------------------------------------------------------------------|
B|---------------------------------------------------------------------------|
G|---------------------------------------------------------------------------|
D|--7------(x16)PM------3----(x16)PM-----------------------------------------|
A|--5------(X16)PM------1----(X16)PM-----------------------------------------|
E|---------------------------------------------------------------------------|

Verse Alternative 2 (Playthrough Verses Like This)(x4)(19s-43s)

e|---------------------------------------------------------------------------|
B|---------------------------------------------------------------------------|
G|---------------------THEN------------------THEN---------------THEN---------|
D|--7--(x8)PM-------------------7-7-7-7-----------------3--(x8)PM----3-3-3-3-|
A|--5--(X8)PM-------------------5-5-5-5-----------------1--(x8)PM----1-1-1-1-|
E|---------------------------------------------------------------------------|

Pre-Chorus (Slowly Turn The Palm Mute Into A Normal Chord Release The Palm Mute Slowly)  (43s-50s)
e|---------------------------------------------------------------------------|
B|---------------------------------------------------------------------------|
G|---------------------------------------------------------------------------|
D|--7--(x32)--PM-------------------------------------------------------------|
A|--5--(x32)--PM-------------------------------------------------------------|
E|---------------------------------------------------------------------------|

Chorus (x2)(50s-1.02)
e|---------------------------------------------------------------------------|
B|---------------------------------------------------------------------------|
G|---------------------------------------------------------------------------|
D|-7-7-7-7--3-3-3-3--10--10--10--10--5-5-5-5---------------------------------|
A|-5-5-5-5--1-1-1-1--8---8---8---8---3-3-3-3---------------------------------|
E|---------------------------------------------------------------------------|

After Choruses (x2)(1.03-1.15)
e|---------------------------------------------------------------------------|
B|-18--15--(x12)---17--13--(x4)----------------------------------------------|
G|---------------------------------------------------------------------------|
D|---------------------------------------------------------------------------|
A|---------------------------------------------------------------------------|
E|---------------------------------------------------------------------------|

Verse Alternative 1 (Playthrough Verses Like This)(x4)~(1.16-1.40)
e|---------------------------------------------------------------------------|
B|---------------------------------------------------------------------------|
G|---------------------------------------------------------------------------|
D|--7------(x16)PM------3----(x16)PM-----------------------------------------|
A|--5------(X16)PM------1----(X16)PM-----------------------------------------|
E|---------------------------------------------------------------------------|

Verse Alternative 2 (Playthrough Verses Like This)(x4)(1.16-1.40)

e|-----------------------------------------------------------------------------|
B|-----------------------------------------------------------------------------|
G|---------------------THEN------------------THEN---------------THEN-----------|
D|--7--(x8)PM-------------------7-7-7-7-----------------3--(x8)PM----3-3-3-3---|
A|--5--(X8)PM-------------------5-5-5-5-----------------1--(x8)PM----1-1-1-1---|
E|-----------------------------------------------------------------------------|

Pre-Chorus (Slowly Turn The Palm Mute Into A Normal Chord Release The Palm Mute Slowly)(1.41-1.47)
e|---------------------------------------------------------------------------|
B|---------------------------------------------------------------------------|
G|---------------------------------------------------------------------------|
D|--7--(x32)--PM-------------------------------------------------------------|
A|--5--(x32)--PM-------------------------------------------------------------|
E|---------------------------------------------------------------------------|

Chorus (x2)(1.48-1.59)
e|---------------------------------------------------------------------------|
B|---------------------------------------------------------------------------|
G|---------------------------------------------------------------------------|
D|-7-7-7-7--3-3-3-3--10--10--10--10--5-5-5-5---------------------------------|
A|-5-5-5-5--1-1-1-1--8---8---8---8---3-3-3-3---------------------------------|
E|---------------------------------------------------------------------------|

After Choruses (x2)(2.00-2.12)
e|---------------------------------------------------------------------------|
B|-18--15--(x12)---17--13--(x4)----------------------------------------------|
G|---------------------------------------------------------------------------|
D|---------------------------------------------------------------------------|
A|---------------------------------------------------------------------------|
E|---------------------------------------------------------------------------|

(x2)(2.19-2.31)
e|---------------------------------------------------------------------------|
B|----10-8--8-10-8---8-10----------------------------------------------------|
G|--7-----10-------10----10-9-7----------------------------------------------|
D|---------------------------------------------------------------------------|
A|---------------------------------------------------------------------------|
E|---------------------------------------------------------------------------|

Chorus (x2)~(2.33-2.45)
e|---------------------------------------------------------------------------|
B|---------------------------------------------------------------------------|
G|---------------------------------------------------------------------------|
D|-7-7-7-7--3-3-3-3--10--10--10--10--5-5-5-5---------------------------------|
A|-5-5-5-5--1-1-1-1--8---8---8---8---3-3-3-3---------------------------------|
E|---------------------------------------------------------------------------|

After Choruses (x2)(2.46-2.58)
e|---------------------------------------------------------------------------|
B|-18--15--(x12)---17--13--(x4)----------------------------------------------|
G|---------------------------------------------------------------------------|
D|---------------------------------------------------------------------------|
A|---------------------------------------------------------------------------|
E|---------------------------------------------------------------------------|

Ending (x1)(2.59-3.05)
e|---------------------------------------------------------------------------|
B|----10-8--8-10-8---8-10----------------------------------------------------|
G|--7-----10-------10----10-9-7----------------------------------------------|
D|---------------------------------------------------------------------------|
A|---------------------------------------------------------------------------|
E|---------------------------------------------------------------------------|

************************************

| /   slide up
| \   slide down
| h   hammer-on
| p   pull-off
| ~   vibrato
| +   harmonic
| x   Mute note
| b   Bend
| pb  Pre-bend
| br  Bend release
| pbr Pre-bend release
| brb Bend release bend

************************************
Tap to rate this tab
# A B C D E F G H I J K L M N O P Q R S T U V W X Y Z