Song name
# A B C D E F G H I J K L M N O P Q R S T U V W X Y Z

Fall Out Boy - Thnks Fr Th Mmrs tab

(Drop D Tuning) --DADGBE
   Chorus:

   Guitars I & II:

|--------------------------|-----------------|
|o-------------------------|-----------------|
|--10-10-10-10-10-10-10-10-|-6-6-6-6-6-6-6-6-|
|---8--8--8--8--8--8--8--8-|-4-4-4-4-4-4-4-4-|
|o--8--8--8--8--8--8--8--8-|-4-4-4-4-4-4-4-4-|
|---8--8--8--8--8--8--8--8-|-4-4-4-4-4-4-4-4-|


  
|-----------------|------------------|
|-----------------|------------------|
|-3-3-3-3-3-3-3-3-|-6-6-6-6----------|
|-1-1-1-1-1-1-1-1-|-4-4-4-4-7-7-7-7--|
|-1-1-1-1-1-1-1-1-|-4-4-4-4-8-8-8-8--|
|-1-1-1-1-1-1-1-1-|-4-4-4-4-7-7-7-7--|


   
|-------------------------|-----------------|
|-------------------------|-----------------|
|-10-10-10-10-10-10-10-10-|-6-6-6-6-6-6-6-6-|
|--8--8--8--8--8--8--8--8-|-4-4-4-4-4-4-4-4-|
|--8--8--8--8--8--8--8--8-|-4-4-4-4-4-4-4-4-|
|--8--8--8--8--8--8--8--8-|-4-4-4-4-4-4-4-4-|


  
|-----------------|------------------|
|-----------------|-----------------o|
|-8-8-8-8-8-8-8-8-|-8-8-8-8-8-8-8-8--|
|-6-6-6-6-6-6-6-6-|-6-6-6-6-6-6-6-6--|
|-6-6-6-6-6-6-6-6-|-6-6-6-6-6-6-6-6-o|
|-6-6-6-6-6-6-6-6-|-6-6-6-6-6-6-6-6--|


 Pre Verse:
     PM--------------------------------|    PM----------------------|
|----------------|-----------------|----------------|-----------------|
|----------------|-----------------|----------------|-----------------|
|-3--------------|-----------------|-----3----------|-----------------|
|-3--------------|-----------------|-----3----------|-----------------|
|-1--1-1-1-1-1-1-|-1-1-1-1-1-1-1-1-|-1-1-1--1-1-1-1-|-1-1-1-1-1-1-1-1-|
|----------------|-----------------|----------------|-----------------|


    Guitars I & II:
       PM--------------------------|      PM------------------------|
|----------------|-----------------|----------------|----------------|
|----------------|-----------------|----------------|----------------|
|-3--------------|-----------------|----------------|----------------|
|-3--------------|-----------------|-7--------------|----------------|
|-1--1-1-1-1-1-1-|-1-1-1-1-1-1-1-1-|-8--------------|----------------|
|----------------|-----------------|-7--7-7-7-7-7-7-|-3-3-3-3-3-3-3-3|


     PM--------|      PM--------|      PM--------------------------|
|----------------|----------------|----------------|-----------------|
|----------------|----------------|----------------|-----------------|
|-8--------------|-6--------------|----------------|-----------------|
|-8--------------|-6--------------|-7--------------|-----------------| x2
|-6--6-6-6-6-6-6-|-4--4-4-4-4-4-4-|-8--------------|-----------------|
|----------------|----------------|-7--7-7-7-7-7-7-|-7-7-7-7-7-7-7-7-|


   Chorus:

|--------------------------|-----------------|
|o-------------------------|-----------------|
|--10-10-10-10-10-10-10-10-|-6-6-6-6-6-6-6-6-|
|---8--8--8--8--8--8--8--8-|-4-4-4-4-4-4-4-4-|
|o--8--8--8--8--8--8--8--8-|-4-4-4-4-4-4-4-4-|
|---8--8--8--8--8--8--8--8-|-4-4-4-4-4-4-4-4-|


 
|-----------------|------------------|
|-----------------|------------------|
|-3-3-3-3-3-3-3-3-|-6-6-6-6----------|
|-1-1-1-1-1-1-1-1-|-4-4-4-4-7-7-7-7--|
|-1-1-1-1-1-1-1-1-|-4-4-4-4-8-8-8-8--|
|-1-1-1-1-1-1-1-1-|-4-4-4-4-7-7-7-7--|


  
|-------------------------|------------------|
|-------------------------|------------------|
|-10-10-10-10-10-10-10-10-|-6-6-6-6-6-6-6-6-o|
|--8--8--8--8--8--8--8--8-|-4-4-4-4-4-4-4-4--|
|--8--8--8--8--8--8--8--8-|-4-4-4-4-4-4-4-4-o|
|--8--8--8--8--8--8--8--8-|-4-4-4-4-4-4-4-4--|



|-----------------|-----------------|
|-----------------|-----------------|
|-8-8-8-8-8-8-8-8-|-8-8-8-8-8-8-8-8-|
|-6-6-6-6-6-6-6-6-|-6-6-6-6-6-6-6-6-|
|-6-6-6-6-6-6-6-6-|-6-6-6-6-6-6-6-6-|
|-6-6-6-6-6-6-6-6-|-6-6-6-6-6-6-6-6-|


 Bridge:
  
                        Guitar II:
                           PM--------|
|---------------------|----------------|-----------------|
|--7------------------|----------------|-----------------|
|--8------------------|----------------|-----------------|
|--8------------------|-3--------------|-----------------|
|--6------------------|-3--------------|-----------------|
|---------------------|-3--3-3-3-3-3-3-|-----------------|


   "Guitar-less" Chorus:

|--------------------------|--------------------------|
|o-------------------------|-------------------------o|
|--------------------------|--------------------------|
|--8--(8)\-----------------|-8--(8)\------------------|
|o-8--(8)\-----------------|-8--(8)\-----------------o|
|--8--(8)\-----------------|-8--(8)\------------------|



|-----------------|--------------------|
|-----------------|--------------------|
|-----------------|--------------------|
|-6-6-6-6-6-6-6-6-|-6-6-6-6-6-6-6-6----|
|-6-6-6-6-6-6-6-6-|-6-6-6-6-6-6-6-6----|
|-6-6-6-6-6-6-6-6-|-6-6-6-6-6-6-6-6----|


     
|--------------------------|-----------------|
|o-------------------------|-----------------|
|--10-10-10-10-10-10-10-10-|-6-6-6-6-6-6-6-6-|
|---8--8--8--8--8--8--8--8-|-4-4-4-4-4-4-4-4-|
|o--8--8--8--8--8--8--8--8-|-4-4-4-4-4-4-4-4-|
|---8--8--8--8--8--8--8--8-|-4-4-4-4-4-4-4-4-|


  
|-----------------|------------------|
|-----------------|------------------|
|-3-3-3-3-3-3-3-3-|-6-6-6-6----------|
|-1-1-1-1-1-1-1-1-|-4-4-4-4-7-7-7-7--|
|-1-1-1-1-1-1-1-1-|-4-4-4-4-8-8-8-8--|
|-1-1-1-1-1-1-1-1-|-4-4-4-4-7-7-7-7--|


   
|-------------------------|-----------------|
|-------------------------|-----------------|
|-10-10-10-10-10-10-10-10-|-6-6-6-6-6-6-6-6-|
|--8--8--8--8--8--8--8--8-|-4-4-4-4-4-4-4-4-|
|--8--8--8--8--8--8--8--8-|-4-4-4-4-4-4-4-4-|
|--8--8--8--8--8--8--8--8-|-4-4-4-4-4-4-4-4-|


                                        
|-----------------|------------------|
|-----------------|-----------------o|
|-8-8-8-8-8-8-8-8-|-8-8-8-8-8-8-8-8--|
|-6-6-6-6-6-6-6-6-|-6-6-6-6-6-6-6-6--|
|-6-6-6-6-6-6-6-6-|-6-6-6-6-6-6-6-6-o|
|-6-6-6-6-6-6-6-6-|-6-6-6-6-6-6-6-6--|


  
|------|
|------|
|------|
|-8----|
|-8----|
|-8----|
Tap to rate this tab
# A B C D E F G H I J K L M N O P Q R S T U V W X Y Z