Song name
# A B C D E F G H I J K L M N O P Q R S T U V W X Y Z

Fall Out Boy - The Phoenix tab

Standard Tuning

I'm not sure at all about the chorus riff.

1st verse

e|-7--7--7--7--7--7--7--7--7--7--7--7-----------------------|
B|-8--8--8--8--8--8--8--8--8--8--8--8-----------------------|
G|-9--9--9--9--9--9--9--9--9--9--9--9-----------------------|
D|----------------------------------------------------------|
A|----------------------------------------------------------|
E|----------------------------------------------------------|

This riff come in the 2nd part of the verse

e|----------------12----------------------------------------|
B|-------------12----10-------------------------------------|
G|-9-9-9-11-12----------12-11-------------------------------|
D|----------------------------------------------------------|
A|----------------------------------------------------------|
E|----------------------------------------------------------|

Pre-chorus

Chorus

e|----------------------------------------------------------|
B|----------------------------------------------------------|
G|----------------------------------------------------------|
D|-7--7-----------------------------------------------------|
A|-5--5-----------------------------------------------------|
E|---------7-7-7-7-7-7-7-7-8-8-8-8-8-8-8-8------------------|

e|----------------------------------------------------------|
B|----------------------------------------------------------|
G|----------------------------------------------------------|
D|----------------------------------------------------------|
A|----------------------------------------------------------|
E|-9-9-9-9-9-9-9-9-8-8-8-8-10-10-10-10----------------------|

This riff come in the 2nd part of the chorus

e|----------------12----------------------------------------|
B|-------------12----10-------------------------------------|
G|-9-9-9-11-12----------12-11-------------------------------|
D|----------------------------------------------------------|
A|----------------------------------------------------------|
E|----------------------------------------------------------|

2nd Verse

e|-7--7--7--7--7--7--7--7--7--7--7--7-----------------------|
B|-8--8--8--8--8--8--8--8--8--8--8--8-----------------------|
G|-9--9--9--9--9--9--9--9--9--9--9--9-----------------------|
D|----------------------------------------------------------|
A|----------------------------------------------------------|
E|----------------------------------------------------------|

This riff come in the 2nd part of the verse

e|----------------12----------------------------------------|
B|-------------12----10-------------------------------------|
G|-9-9-9-11-12----------12-11-------------------------------|
D|----------------------------------------------------------|
A|----------------------------------------------------------|
E|----------------------------------------------------------|

Pre-chorus

Chorus

e|----------------------------------------------------------|
B|----------------------------------------------------------|
G|----------------------------------------------------------|
D|-7--7-----------------------------------------------------|
A|-5--5-----------------------------------------------------|
E|---------7-7-7-7-7-7-7-7-8-8-8-8-8-8-8-8------------------|

e|----------------------------------------------------------|
B|----------------------------------------------------------|
G|----------------------------------------------------------|
D|----------------------------------------------------------|
A|----------------------------------------------------------|
E|-9-9-9-9-9-9-9-9-8-8-8-8-10-10-10-10----------------------|

This riff come in the 2nd part of the chorus

e|----------------12----------------------------------------|
B|-------------12----10-------------------------------------|
G|-9-9-9-11-12----------12-11-------------------------------|
D|----------------------------------------------------------|
A|----------------------------------------------------------|
E|----------------------------------------------------------|

Bridge

e|-7--7--7--7--8--8--8--8--9--9--9--9--8--8--8--8-----------|
B|-8--8--8--8--8--8--8--8--8--8--8--8--8--8--8--8-----------|
G|-9--9--9--9--9--9--9--9--9--9--9--9--9--9--9--9-----------|
D|----------------------------------------------------------|
A|----------------------------------------------------------|
E|----------------------------------------------------------|

Chorus

e|----------------------------------------------------------|
B|----------------------------------------------------------|
G|----------------------------------------------------------|
D|-7--7-----------------------------------------------------|
A|-5--5-----------------------------------------------------|
E|---------7-7-7-7-7-7-7-7-8-8-8-8-8-8-8-8------------------|

e|----------------------------------------------------------|
B|----------------------------------------------------------|
G|----------------------------------------------------------|
D|----------------------------------------------------------|
A|----------------------------------------------------------|
E|-9-9-9-9-9-9-9-9-8-8-8-8-10-10-10-10----------------------|

This riff come in the 2nd part of the chorus

e|----------------12----------------------------------------|
B|-------------12----10-------------------------------------|
G|-9-9-9-11-12----------12-11-------------------------------|
D|----------------------------------------------------------|
A|----------------------------------------------------------|
E|----------------------------------------------------------|

Ends whit the riff of the verse ;)
Tap to rate this tab
# A B C D E F G H I J K L M N O P Q R S T U V W X Y Z