Song name
# A B C D E F G H I J K L M N O P Q R S T U V W X Y Z

Fall Out Boy - My Songs Know What You Did In The Dark Light Em Up Acoustic tab

----------------------------------------------------------------------------
                             SONG NAME - Band Name
-------------------------------------------------------------------------------
This is the acoustic version of Fall Out Boys new hit song. 
Tab is related to their recent acoustic 
performance of this song. I've included the link 
below. In my mind its 99.9% correct. 
If you have any suggestions please leave 
them in the comment section. Thank You

http://www.youtube.com/watch?v=ZAIZRhamEVw

Tabbed by:RowdyNeil

E-mail:rowdyneil18@gmail.com

Tuning:Standard

Intro: The Whoah Whoah part 
e|---------------------------------------------------------------------------|
B|---------------------------------------------------------------------------|
G|---------------------------------------------------------------------------|
D|---------------------------------------------------------------------------|
A|-4444444444444444444444444444444444 (Palm mute and keep repeating till verse)
E|---------------------------------------------------------------------------|

Verses: (Chords)
e|-0----------------------x---------------0-----------------------------------
B|-5----------------------x---------------5-----------------------------------|
G|-6--(X2)----------------6---------------6-----------------------------------      
D|-6----------------------6-(Palm Mute)---7---(X2)(Down Strums for the X2's)--
A|-4----------------------4---------------x-----------------------------------
E|-x----------------------x---------------x-----------------------------------

e|-x--------------------------------------------------------------------------|
B|-5--------------------------------------------------------------------------|
G|-6-(Palm Mute)--------(ALL OF THIS x4 FOR THE VERSE)------------------------|
D|-7--------------------------------------------------------------------------|
A|-x--------------------------------------------------------------------------|
E|-x--------------------------------------------------------------------------|
   Prechorus:
e|---------------------------------------------------------------------------|
B|---------------------------------------------------------------------------|
G|--(SAME AS INTRO)----------------------------------------------------------|
D|---------------------------------------------------------------------------|
A|---------------------------------------------------------------------------|
E|---------------------------------------------------------------------------|
  Chorus:
e|-0--0--0--0-----------------------------------------------------------------|
B|-5--5--0--0-----------------------------------------------------------------|
G|-6--6--1--4----(X4)---------------------------------------------------------|
D|-6--7--2--4-----------------------------------------------------------------|
A|-4--0--2--2-----------------------------------------------------------------|
E|-x--x--0--x-----------------------------------------------------------------|
   

Verse 2 (same as verse 1 except when 
you get to the word ashes you mute all the strings for a second)

Prechorus 2: (same as prechorus 1)

Chorus 2: (same as chorus 1)

During the bridge you mute all the strings 
for the 1st part and just strum up and down. 
I can't really tell what Patrick's doing in 
the second part so just play the intro, that works
Tap to rate this tab
# A B C D E F G H I J K L M N O P Q R S T U V W X Y Z