Song name
# A B C D E F G H I J K L M N O P Q R S T U V W X Y Z

Fall Out Boy - The Mighty Fall tab

Here you go guys :) sorry but i havn't worked out the correct rythym of it yet, so
this is wrong, but should give you a good idea of how to play it :) By sam Thomas

e------------------------------|----------------------------------------|
B------------------------------|----------------------------------------|
G------------------------------|----------------------------------------|
D------------------------------|----------------------------------------|
A-------------------------33-0-|-------------------------33-0-----------|
E-3h5-5-5--x--3h5-5-5--x-------|-3h5-5-5--x--3h5-5-5--x-----------------|

e------------------------------|----------------------------------------|
B------------------------------|----------------------------------------|
G------------------------------|----------------------------------------|
D------------------------------|----------------------------------------|
A-------------------------33-0-|-------------------------55-3-----------|
E-0h1-1-1--x--0h1-1-1--x-------|-3h5-5-5--x--3h5-5-5--x-----------------|
Tap to rate this tab
 
# A B C D E F G H I J K L M N O P Q R S T U V W X Y Z