Song name
# A B C D E F G H I J K L M N O P Q R S T U V W X Y Z

Fall Out Boy - Just One Yesterday tab

-----------------------------------------------------------------------------
                             JUST ONE YESTERDAY - Fall Out Boy
-----------------------------------------------------------------------------
Tabbed by:Tyler Thornes
E-mail:tjthornes@umes.edu

Tuning:Standard

Intro

e|----------------------------------------------------------------------------|
B|----------------------------------------------------------------------------|
G|----------------------------------------------------------------------------|
D|----------------------------------------------------------------------------|
A|----------------------------------------------------------------------------|
E|-2-222-222-222-22-5-555-555-555-55-0-000-000-000-00-7-777-777-777-77--------|
PM----------------------------------------------------------------------------|
Verse
e|----------------------------------------------------------------------------|
B|----------------------------------------------------------------------------|
G|----------------------------------------------------------------------------|
D|----------------------------------------------------------------------------|
A|----------------------------------------------------------------------------|
E|-5555-2222-5555-0000 x3 then 7x8--------------------------------------------|
PM----------------------------------------------------------------------------|
Chorus
e|----------------------------------------------------------------------------|
B|----------------------------------------------------------------------------|
G|-----7-------9--------------------------------------------------------------|
D|-4---7---7---9--------------------------------------------------------------|
A|-4---5---7---7--------------------------------------------------------------|
E|-2-------5------------------------------------------------------------------|

Bridge

e|-0----0---0------------0----0-----0-----------------------------------------|
B|-10---12--10-----------10---12----10----------------------------------------|
G|-11---13--11---9-7-----11---13----11----------------------------------------|
D|-12-------11-------7---12---------11----------------------------------------|
A|----------------------------------------------------------------------------|
E|----------------------------------------------------------------------------|
Play the same rhythm as the intro except for the 11/11.
e|--------------------------------------------------------------------|
B|--------------------------------------------------------------------|
G|-11-----------------------------------------------------------------|
D|-11-----------------------------------------------------------------|
A|--------------------------------------------------------------------|
E|------9-5-9-7-5-----------------------------------------------------|
PM--------------------------------------------------------------------|
Chorus

Let me know if anything is wrong.
************************************

| /   slide up
| \   slide down
| h   hammer-on
| p   pull-off
| ~   vibrato
| +   harmonic
| x   Mute note
| b   Bend
| pb  Pre-bend
| br  Bend release
| pbr Pre-bend release
| brb Bend release bend

************************************
Tap to rate this tab
# A B C D E F G H I J K L M N O P Q R S T U V W X Y Z