Song name
# A B C D E F G H I J K L M N O P Q R S T U V W X Y Z

Fall Out Boy - Miss Missing You tab

-----------------------------------------------------------------------------
                            MISS MISSING YOU - Fall Out Boy
-----------------------------------------------------------------------------
Tabbed by:Tyler Thornes
E-mail:tjthornes@umes.edu

Tuning:Standard
Intro is on a synth but here it is anyway:
(0:00)Do it twice.
e|-----------------------------------------------------------------|
B|--9-7-7-9-7-5----------------------------------------------------|
G|-----------------------------------------------------------------|
D|-----------------------------------------------------------------|
A|-----------------------------------------------------------------|
E|-----------------------------------------------------------------|
You can either palm mute these or play them without any bass or mid.
(0:16)(1:23)(2:39)
e|-------------------------------------------------------------------------|
B|-------------------------------------------------------------------------|
G|-------------------------------------------------------------------------|
D|-9------11---------------------------------------------------------------|
A|-7x8----9x8---11---------------------------------------------------------|
E|--------------9x16-------------------------------------------------------|

PM-------------------------------------------------------------------

(0:33)(1:47)
e|---------------------------------------------------------------------------|
B|----9-7------9-7------9-7--------------------------------------------------|
G|--------9--------9--------9------------------------------------------------|
D|-9---------7--------9--------11--------------------------------------------|
A|-9---------7--------9--------11--------------------------------------------|
E|-7---------5--------7--------9---------------------------------------------|

Chorus(0:49)(2:05)
e|--------------------------------------------------------------------------|
B|--------------------------------------------------------------------------|
G|-6---9--------------------------------------------------------------------|
D|-6-7-9-9------------------------------------------------------------------|
A|-4-7-7-9------------------------------------------------------------------|
E|---5---7------------------------------------------------------------------|

Lemme know if there's anything wrong.


************************************

| /   slide up
| \   slide down
| h   hammer-on
| p   pull-off
| ~   vibrato
| +   harmonic
| x   Mute note
| b   Bend
| pb  Pre-bend
| br  Bend release
| pbr Pre-bend release
| brb Bend release bend

************************************
Tap to rate this tab
# A B C D E F G H I J K L M N O P Q R S T U V W X Y Z