Song name
# A B C D E F G H I J K L M N O P Q R S T U V W X Y Z

Fall Out Boy - The Mighty Fall tab

-------------------------------------------------------------------------------
                             THE MIGHTY FALL - Fall Out Boy
-------------------------------------------------------------------------------
Tabbed by: TheGuitarist620
Tuning: Standard



Intro:

e|------------------|-------------------|----------------------||
B|------------------|-------------------|----------------------||
G|------------------|-------------------|----------------------||
D|------------------|-------------------|----------------------||
A|--------------33--|---------------33--|--------------33------||
E|-3h5-5-535-55---3-|-3h5-5-535-55----3-|-0h1-1-101-11---3-----||
Triplets>|||    |||         |||     |||         |||    |||


Verse & Chorus:  (NOTE: Played twice; on the second time don't play the last measure)

e|------------------|-------------------|------------------|----------------------||
B|------------------|-------------------|------------------|----------------------||
G|------------------|-------------------|------------------|----------------------||
D|------------------|-------------------|------------------|----------------------||
A|--------------33--|---------------33--|--------------33--|--------------553-----||
E|-3h5-5-535-55---3-|-3h5-5-535-55----3-|-0h1-1-101-11---3-|-3h5-5-535-55---------||
Triplets>|||    |||         |||     |||         |||    |||         |||    |||


Chorus: (Rhythm Guitar)

e|---------------------|-------------------------||
B|---------------------|-------------------------||
G|-2---------5---------|-2---------5-------------||
D|-2-x8-3----5-x8-5----|-2-x8-3----5-x8-5--------||
A|-0----3-x8-3----5-x8-|-0----3-x8-3----5-x4-----||
E|------1---------3----|------1---------3--------||




************************************

| h   hammer-on

(NOTE: I marked some notes as triplets. They sound best as such to me. 
However, you can just feel the rhythm and timing how ever you like it's pretty straight forward.)

************************************
Tap to rate this tab
# A B C D E F G H I J K L M N O P Q R S T U V W X Y Z