Song name
# A B C D E F G H I J K L M N O P Q R S T U V W X Y Z

Fall Out Boy - I Dont Care tab

-------------------------------------------------------------------------------
                             I DON'T CARE - Fall Out Boy
-------------------------------------------------------------------------------
Tabbed by: Louis
Email:Louis-curtis@hotmail.co.uk

Tuning: Standard

Verses
e|-------------------------|
B|-------------------------|
G|-------------------------|
D|---4-4-4--4--4--4--4---4-|
A|---------0--2--0--2--0---|
E|-2-----------------------|
    d u u u d u d u d u d u
Downs
Ups


Turn Around
e|--------------------------------|
B|--------------------------------|
G|--------------------------------|
D|--------------------------------|
A|-555555-444444-222222-000-------|
E|----------------------------444-|

Chorus
e|-------------------------------------------------------------------------|
B|-------------------------------------------------------------------------|
G|-------------------------------------7-7-7-7-7-7-7-7--4-4-4-4-4-4-4-4----|
D|-4-4-4-4-4-4-4-4--7-7-7-7-7-7-7-7--7-7-7-7-7-7-7-7--4-4-4-4-4-4-4-4------|
A|-4-4-4-4-4-4-4-4--7-7-7-7-7-7-7-7--5-5-5-5-5-5-5-5--2-2-2-2-2-2-2-2------|
E|-2-2-2-2-2-2-2-2--5-5-5-5-5-5-5-5--5-5-5-5-5-5-5-5--2-2-2-2-2-2-2-2------|

e|------------------------------------------------------------------------|
B|------------------------------------------------------------------------|
G|-7-7-7-7-7-7-7-7--4-4-4-4-4-4-4-4---------------------------------------|
D|-7-7-7-7-7-7-7-7--4-4-4-4-4-4-4-4----4-4-4---4---4---4---4--4-----------|
A|-5-5-5-5-5-5-5-5--2-2-2-2-2-2-2-2----------0---2---0----2--0------------|
E|-5-5-5-5-5-5-5-5--2-2-2-2-2-2-2-2--2------------------------------------|


Bridge

e|-------------------------|     |-----------------------------|
B|-------------------------|     |-----------------------------|
G|-------------------------|     |-----------------------------|
D|---4-4-4--4--4--4--4---4-|     |---4-4-4---4---4---4---4--4--|
A|---------0--2--0--2--0---|     |--------0---2---0---2-----4--|
E|-2-----------------------| x2  |2-------------------------2--| x2

e|--------------------------------------|------------------------------------|
B|--------------------------------------|------------------------------------|
G|--------------------------------------|------------------------------------|
D|---4---4---4--4--4----4---4---4-------|-4---4--4---4---4-4-4-4-4-4-4-4-----|
A|-----0---0----4-----0---2---0---------|-4---2--2---4---4-4-4-4-4-4-4-4-----|
E|-2------------2-----------------------|-2---2--2---2---2-2-2-2-2-2-2-2-----|

Solo

e|---|----------------------------------|-------14-14-----14-0-12-14--|
B|-0-|----------------12--12-14-14-14---|-14-14-----------------------|
G|---|-11-13-14-13-14--14---------------|-----------------------------|
D|---|----------------------------------|-----------------------------|
A|---|----------------------------------|-----------------------------|
E|---|----------------------------------|-----------------------------|

e|14-0-12-14-12-14-0-----------|0-14-14---14-0--12-14-0-|-14-0-12-14-12-14-0----------|
B|-------------------10-12-10--|------------------------|--------------------10-12-10-|
G|-----------------------------|------------------------|-----------------------------|
D|-----------------------------|------------------------|-----------------------------|
A|-----------------------------|------------------------|-----------------------------|
E|-----------------------------|------------------------|-----------------------------|

e|---------------------|-----------14-16-17-17-|  |~17 17~17 ~17 ~17 ~17 ~17 ~17--|
B|-0-10-12-10---0-14---|-12-10-----------------|  |-------------------------------|
G|---------------------|-------11-9------------|  |-------------------------------|
D|---------------------|-----------------------|  |-------------------------------|
A|---------------------|-----------------------|  |-------------------------------|
E|---------------------|-----------------------|  |-------------------------------|

e|-17-17-17-17-17-17-17-17-17-17-17-17---|--17---|
B|---------------------------------------|-------|
G|---------------------------------------|-------|
D|---------------------------------------|-------|
A|---------------------------------------|-------|
E|---------------------------------------|-------|



| /  slide up
| \  slide down
| h  hammer-on
| p  pull-off
| ~  vibrato
| +  harmonic
| x  Mute note
Tap to rate this tab
# A B C D E F G H I J K L M N O P Q R S T U V W X Y Z