Song name
# A B C D E F G H I J K L M N O P Q R S T U V W X Y Z

Fall Out Boy - The Mighty Fall tab

Fall Out Boy-The Mighty Fall (feat. Big Sean)

Standard EADGBe tuning
No capo

Chords used:

Gm      Am      Em      Dm      G       B

Riff #1

|---------------------------------------------------------------------------------------|
|---------------------------------------------------------------------------------------|
|---------------------------------------------------------------------------------------|
|---------------------------------------------------------------------------------------|
|-------3-0---------------------3-0---------------------3-0---------------------5-3-----|
|----------35h-5-5-5-35h------35h-5-5-5-35h------01h-1-1-1-01h-------35h-5-5-5-35h------|

Riff #2

|---------------------------------------------------------------------------------------|
|--7-9-9-7-9-9-7-9-9-7-9-9-9-9-7-7-9-9-7-9-9-7-9-9-7-9-9-9-9-7--------------------------|
|---------------------------------------------------------------------------------------|
|---------------------------------------------------------------------------------------|
|---------------------------------------------------------------------------------------|
|---------------------------------------------------------------------------------------|

Riff #3

|---------------------------------------------------------------------------------------|
|---------------------------------------------------------------------------------------|
|---------------------------------------------------------------------------------------|
|---------------------------------------------------------------------------------------|
|----------------3-0--------------------------------------------------------------------|
|--35h-5-5-5-35h----0-------------------------------------------------------------------|

Intro: Riff #2 Riff #1

Verse 1:

Riff #1
Did you trip down 12 steps into Malibu (Malibu)
So why the hell is there a light thatís keeping us forever
Bel Air baby did you get dressed up
Pretty pout pout
(While you bottomed out)
I canít stop when thereís chemicals keeping us together

Chorus:

Gm             Am
Iím singing oh oh-oh oh-oh-oh-oh
Em                                      Am
How the mighty fall, the mighty fall
Am              Em
The mighty fall
           Am
Fall in lo-o-o-o-o-o-ove
Em                                      Am
How the mighty fall, the mighty fall
Am              Em
The mighty fall
Em                           Dm
Oh how the mighty fall in love

Riff #2

Verse 2:

Riff #1
Your crooked love is just a pyramid scheme and Iím dizzy on dreams
(Yeah youíre dizzy on dreams)
But if you ask me twoís a whole lot lonelier than one
B-baby we shouldíve left our love in the gutter where we found it
(Gutter where we found it)
Cause you think you think your only crime is that you got caught

Chorus:

Gm             Am
Iím singing oh oh-oh oh-oh-oh-oh
Em                                      Am
How the mighty fall, the mighty fall
Am              Em
The mighty fall
           Am
Fall in lo-o-o-o-o-o-ove
Em                                      Am
How the mighty fall, the mighty fall
Am              Em
The mighty fall
Em                           Dm
Oh how the mighty fall in love

Bridge 1:

Dm
Itís getting clear
Am
Youíre never coming clean
G
So Iíll lock you up inside
Dm
And swallow
B                  Gm
Swallow the key

Bridge 2: (Big Sean)

Hello?
Riff #1
Yeah I know you said not to call unless Iím dying
But Iím driving and I canít stop staring at my eyelids
But even though my eyes closed, I still see you
Pause
I just hope that when you see me Iím not see-through
You know how we do
Some times I swear, I need a day just for me to lay
With some T and A, but the way we, they way we do is deeper
Baby straight up chemistry DNA
Make me wanna give you every dollar out of my B or A
Like, I let her climb on top
Iím either f-ing or workiní, so the grind donít stop
They say I got screws missing, well hell, only when Iím missing you
Pause
And hell yeah Iím a dick girl, addicted to you

Chorus:

Gm             Am
Who-o-oh oh oh-oh oh-oh-oh-oh
Em                                      Am
How the mighty fall, the mighty fall
Am              Em
The mighty fall
           Am
Fall in lo-o-o-o-o-o-ove
Em                                      Am
How the mighty fall, the mighty fall
Am              Em
The mighty fall
Em                           D
Oh how the mighty fall in love

Outro: Riff #3
Tap to rate this tab
# A B C D E F G H I J K L M N O P Q R S T U V W X Y Z