Song name
# A B C D E F G H I J K L M N O P Q R S T U V W X Y Z

Fall Out Boy - Take Over The Breaks Over tab

-----------------------------------------------------------------------------
               The Take Over, The Breaks Over - Fall Out Boy
-----------------------------------------------------------------------------

Tuning: Standard (EADGBe)
Guitar 1 (Distortion): Patrick Stump (lead)
Guitar 2 (Distortion): Joe Trohman (rhythm)

GUITAR 1:
Intro, Verse 1, Pre-chorus:
e|-----------------------------------------------------------|
B|-----------------------------------------------------------|
G|----4----4----4-----4-----------4----4----4-----4----------|      x6
D|-------------------------------------------------------5---|
A|--4----4----4--------------5-----------------22----22--3---|
E|-----------------44----44--3--2----2----2------------------|

GUITAR 2:
Pre-chorus: (...but don't pretend...)
e|---------------------------------------------------------------|
B|---------------------------------------------------------------|
G|--6-6-6-6-6-6-6-6-------------------------------4-4-4-4-4--5---|
D|--6-6-6-6-6-6-6-6-6-6-6-6-6--5--4-4-4-4-4-4-4-4-4-4-4-4-4--5---|
A|--4-4-4-4-4-4-4-4-6-6-6-6-6--5--4-4-4-4-4-4-4-4-2-2-2-2-2--3---|
E|------------------4-4-4-4-4--3--2-2-2-2-2-2-2-2----------------|
    . . . . . . . . . . . . .     . . . . . . . . . . . . .
e|------------------------------------------------------------------|
B|------------------------------------------------------------------|
G|--6-6-6-6-6-6-6-6-------------------------------4-4-4-4-4-4-4-4---|
D|--6-6-6-6-6-6-6-6-6-6-6-6-6--5--4-4-4-4-4-4-4-4-4-4-4-4-4-4-4-4---|
A|--4-4-4-4-4-4-4-4-6-6-6-6-6--5--4-4-4-4-4-4-4-4-2-2-2-2-2-2-2-2---|
E|------------------4-4-4-4-4--3--2-2-2-2-2-2-2-2-------------------|
    . . . . . . . . . . . . .     . . . . . . . . . . . . .

GUITAR 1 AND 2:
CHORUS:

e|-----------------------------------------------------------|
B|-----------------------------------------------------------|
G|--2--2-2--2-2-2-4-4-4-4-4--2----------------6-6-6-6-6--4---|      x2
D|--2--2-2--2-2-2-4-4-4-4-4--2--6--6-6--6-6-6-6-6-6-6-6--4---|
A|----------------2-2-2-2-2-----6--6-6--6-6-6-4-4-4-4-4--2---|
E|------------------------------4--4-4--4-4-4----------------|

GUITAR 1:
...we don't fight fair...
e|-----------------------------------------------------------|
B|-----------------------------------------------------------|
G|----4----4----4-----4-----------4----4----4-----4----------|      x5
D|-------------------------------------------------------5---|
A|--4----4----4--------------5-----------------22----22--3---|
E|-----------------44----44--3--2----2----2------------------|

GUITAR 2:
...they say your head can be a prison...
e|------------------------------|
B|------------------------------|
G|--9-9-9/13-13-13\11-11-11-8---|    x4
D|------------------------------|
A|--7-7-7/11-11-11\9--9--9--6---|
E|------------------------------|

Pre-chorus: (...but don't pretend...)
e|---------------------------------------------------------------|
B|---------------------------------------------------------------|
G|--6-6-6-6-6-6-6-6-------------------------------4-4-4-4-4--5---|
D|--6-6-6-6-6-6-6-6-6-6-6-6-6--5--4-4-4-4-4-4-4-4-4-4-4-4-4--5---|
A|--4-4-4-4-4-4-4-4-6-6-6-6-6--5--4-4-4-4-4-4-4-4-2-2-2-2-2--3---|
E|------------------4-4-4-4-4--3--2-2-2-2-2-2-2-2----------------|
    . . . . . . . . . . . . .     . . . . . . . . . . . . .
e|------------------------------------------------------------------|
B|------------------------------------------------------------------|
G|--6-6-6-6-6-6-6-6-------------------------------4-4-4-4-4-4-4-4---|
D|--6-6-6-6-6-6-6-6-6-6-6-6-6--5--4-4-4-4-4-4-4-4-4-4-4-4-4-4-4-4---|
A|--4-4-4-4-4-4-4-4-6-6-6-6-6--5--4-4-4-4-4-4-4-4-2-2-2-2-2-2-2-2---|
E|------------------4-4-4-4-4--3--2-2-2-2-2-2-2-2-------------------|
    . . . . . . . . . . . . .     . . . . . . . . . . . . .

GUITAR 1 AND 2:
CHORUS:

e|-----------------------------------------------------------|
B|-----------------------------------------------------------|
G|--2--2-2--2-2-2-4-4-4-4-4--2----------------6-6-6-6-6--4---|      x2
D|--2--2-2--2-2-2-4-4-4-4-4--2--6--6-6--6-6-6-6-6-6-6-6--4---|
A|----------------2-2-2-2-2-----6--6-6--6-6-6-4-4-4-4-4--2---|
E|------------------------------4--4-4--4-4-4----------------|

GUITAR 1 AND 2:
BRIDGE:

e|--------------------------------------------------------------|
B|--------------------------------------------------------------|
G|--9--9-9------------------------------------------------------|
D|--9--9-9----------------------9--9-9-------------9-6-7--7-7---|
A|--7--7-7-7-7-7-7-7-7-7-7-7-7--9--9-9-------------9-6-7--7-7---|
E|------------------------------7--7-7-7-7-7-7-7-7-7-4-5--5-5---|
           . . . . . . . . . .         . . . . . .
e|---------------------------------------------------------|
B|---------------------------------------------------------|
G|-----------------------6-6-6-6-6-6-6-6-4-4-4-4-4-4-4-4---|
D|-----------------------6-6-6-6-6-6-6-6-4-4-4-4-4-4-4-4---|
A|-----------------------4-4-4-4-4-4-4-4-2-2-2-2-2-2-2-2---|
E|--5-5-5-5-5-5-5-5-5-5------------------------------------|
    . . . . . . . . . .  . . . . . . . . . . . . .   .

e|------------------------------------------------------------------|
B|------------------------------------------------------------------|
G|--9--9-9--9-9--9-9-9-9-9--9---------------------------------------|
D|--9--9-9--9-9--9-9-9-9-9--9-9--9-9--9-9--9-9-6-7--7-7--7-7--7-7---|
A|--7--7-7--7-7--7-7-7-7-7--7-9--9-9--9-9--9-9-6-7--7-7--7-7--7-7---|
E|----------------------------7--7-7--7-7--7-7-4-5--5-5--5-5--5-5---|

e|------------------------------------|
B|------------------------------------|
G|--6-6-6-6-6-6-6-6-4-4-4-4-4-4-4-4---|
D|--6-6-6-6-6-6-6-6-4-4-4-4-4-4-4-4---|
A|--4-4-4-4-4-4-4-4-2-2-2-2-2-2-2-2---|
E|------------------------------------|
    . . . . . . . . . . . . .   .

GUITAR 1:
...we don't fight fair...
e|-----------------------------------------------------------|
B|-----------------------------------------------------------|
G|----4----4----4-----4-----------4----4----4-----4----------|      x2
D|-------------------------------------------------------5---|
A|--4----4----4--------------5-----------------22----22--3---|
E|-----------------44----44--3--2----2----2------------------|

SOLO:
e|--------------------------------------------------------------|
B|--------------------------------------------------------------|
G|--------------------------------------------------------------|
D|------6h7-7-6-6---6--9-7-6-------------6h7-7-6-6---6--9-7-6---|
A|--7h9-----------9----------6-7-----7h9-----------9------------|
E|-------------------------------9-7----------------------------|

e|------------------7---7-----7---------7---7-----7--------|
B|--------------------------------7b9---------------9b10---|
G|----------------9---9---9-8---8-----6---6---6-9----------|
D|------6-11-9~~-------------------------------------------|
A|--7-9----------------------------------------------------|
E|---------------------------------------------------------|

e|----7---7-----7----------------------------------------|
B|------------------7b9----------------------------------|
G|--9---9---9-8---8-----666888999-11-11-11-11b13-9~~~~---|
D|-------------------------------------------------------|
A|-------------------------------------------------------|
E|-------------------------------------------------------|

GUITAR 2:
SOLO:

e|-----------------------------------------------------|
B|-----------------------------------------------------|
G|--2-2-2-2-2-2-4-4-4-4-4--2---------------6-6-6-6-6---|
D|--2-2-2-2-2-2-4-4-4-4-4--2--6-6-6-6-6-6--6-6-6-6-6---|
A|--------------2-2-2-2-2-----6-6-6-6-6-6--4-4-4-4-4---|
E|----------------------------4-4-4-4-4-4--------------|

e|----------------------------------------|
B|----------------------------------------|
G|---------------------9-6---------11-9---|
D|------6h7-11-9-9-7-9-----9-6-7-9--------|
A|--7h9-----------------------------------|
E|----------------------------------------|

e|--------------------------------------------------------|
B|--------------------------------------------------------|
G|--2-2-2-2-2-2-4-4-4-4-4--2---------------6-6-6-6-6--4---|
D|--2-2-2-2-2-2-4-4-4-4-4--2--6-6-6-6-6-6--6-6-6-6-6--4---|
A|--------------2-2-2-2-2-----6-6-6-6-6-6--4-4-4-4-4--2---|
E|----------------------------4-4-4-4-4-4-----------------|

e|-----------------------------------------------------------|
B|-----------------------------------------------------------|
G|--2-2-2-2-2-2-4-4-4-4-4--2---------------6-6-6-6-6--4--9---|
D|--2-2-2-2-2-2-4-4-4-4-4--2--6-6-6-6-6-6--6-6-6-6-6--4--9---|
A|--------------2-2-2-2-2-----6-6-6-6-6-6--4-4-4-4-4--2--7---|
E|----------------------------4-4-4-4-4-4--------------------|

GUITAR 2:
Bridge (...we do it in the dark...)
e|----------------------------------------------------------|
B|----------------------------------------------------------|
G|--9--9-9--9-9--9-9----------------------------------------|
D|--9--9-9--9-9--9-9--9--9-9--9-9--9-9-6-7--7-7--7-7--7-7---|
A|--7--7-7--7-7--7-7--9--9-9--9-9--9-9-6-7--7-7--7-7--7-7---|
E|--------------------7--7-7--7-7--7-7-4-5--5-5--5-5--5-5---|

e|-------------------------|
B|-------------------------|
G|--6--6-6--4--4-4--4--9---|
D|--6--6-6--4--4-4--4--9---|
A|--4--4-4--2--2-2--2--7---|
E|-------------------------|

GUITAR 1:

e|-------------------------------|
B|-------9h10-12-10-9-7----------|
G|--9h11----------------9--------|
D|------------------------11-9---|
A|-------------------------------|
E|-------------------------------|

e|---------------------------|
B|--/9-10-9---/12-9-10p9p7---|
G|----------7----------------|
D|---------------------------|
A|---------------------------|
E|---------------------------|

GUITAR 1 AND 2:

e|------------------------------------------------------------------|
B|------------------------------------------------------------------|
G|--9--9-9--9-9--9-9-9-9-9--9---------------------------------------|
D|--9--9-9--9-9--9-9-9-9-9--9-9--9-9--9-9--9-9-6-7--7-7--7-7--7-7---|
A|--7--7-7--7-7--7-7-7-7-7--7-9--9-9--9-9--9-9-6-7--7-7--7-7--7-7---|
E|----------------------------7--7-7--7-7--7-7-4-5--5-5--5-5--5-5---|

e|--------------------------|
B|--------------------------|
G|--6-6--6-6--4-4--4-4--9---|
D|--6-6--6-6--4-4--4-4--9---|
A|--4-4--4-4--2-2--2-2--7---|
E|--------------------------|

e|------------------------------------------------------------|
B|------------------------------------------------------------|
G|--9--9-9--9-9--9-9-9-9-9--9---------------------------------|
D|--9--9-9--9-9--9-9-9-9-9--9-9-9-9-9-9-9-9-6-7-7-7-7-7-7-7---|
A|--7--7-7--7-7--7-7-7-7-7--7-9-9-9-9-9-9-9-6-7-7-7-7-7-7-7---|
E|----------------------------7-7-7-7-7-7-7-4-5-5-5-5-5-5-5---|

e|------------------------------------|
B|------------------------------------|
G|--7-7-7-7-7-7-7-7-4-4-4-4-4-4-4-4---|
D|--7-7-7-7-7-7-7-7-4-4-4-4-4-4-4-4---|
A|--4-4-4-4-4-4-4-4-2-2-2-2-2-2-2-2---|
E|------------------------------------|
        . . . . . . . . . . .   .







************************************

| /   slide up
| \   slide down
| h   hammer-on
| p   pull-off
| ~   vibrato
| b   Bend

************************************
Tap to rate this tab
# A B C D E F G H I J K L M N O P Q R S T U V W X Y Z