Song name
# A B C D E F G H I J K L M N O P Q R S T U V W X Y Z

Fall Out Boy - Save Rock And Roll tab

-----------------------------------------------------------------------------
                             Save Rock and Roll - Fall Out Boy ft Elton John
-----------------------------------------------------------------------------
Tabbed by:missbananadog
E-mail:acarter98@nycap.rr.com

Tuning:standard

e|------------------------------------------------------|
B|-0----0----2----2---0----2---0------------------------|
G|----1----1----1----1---1---1----1---------------------| x2
D|------------------------------------------------------|
A|------------------------------------------------------|
E|------------------------------------------------------|


e|------------------------------------------------------|
B|------------------------------------------------------|
G|--2-2-2-1---------------------------------------------| x2
D|-----------4-2----------------------------------------|
A|------------------------------------------------------|
E|------------------------------------------------------|


This lick is used throughout the verses and most of the rest of the song, except for 
when the key changes at the end.
Tap to rate this tab
 
# A B C D E F G H I J K L M N O P Q R S T U V W X Y Z