Song name
# A B C D E F G H I J K L M N O P Q R S T U V W X Y Z

Fall Out Boy - More Than I Can Take tab

-------------------------------------------------------------------------------
			     More Than I Can Take - Fall Out Boy
-------------------------------------------------------------------------------
Tabbed by: Aron S*
Email: goodsum@hotmail.com

Tuning: standard

Intro/Verse
e|--------------------------------------|------|
B|--------------------------------------|------|
G|--------------------------------------|------|
D|--7-7-7-7--4-4-4-4--2-2-2-2--4-4-4-4--|--7~--| listen when to play this note
A|--7-7-7-7--4-4-4-4--2-2-2-2--4-4-4-4--|------|
E|--5-5-5-5--2-2-2-2--0-0-0-0--2-2-2-2--|------|
(......pm.......pm.......pm.......pm....)


Chorus
e|--------------------------------------|
B|--------------------------------------|
G|--------------------4444444--7777777--|
D|--7777777--2222222--4444444--7777777--|
A|--7777777--2222222--2222222--5555555--|
E|--5555555--0000000--------------------|


Bridge:
(1:48)
e|-----------------7-5----------------------------|
B|---------------------7-5------------------------|
G|-------6-6--7-7----------7-------6-6--7-7---7~--|
D|--7-7--6-6--7-7-------------7-7--6-6--7-7-------|
A|--7-7--4-4--5-5-------------7-7--4-4--5-5-------|
E|--5-5-----------------------5-5-----------------|

e|-----------------5h7--------------------------------------------|
B|---------------------6------------------------------------------|
G|-------6-6--7-7--------6h7---------6-6--7-7---------------------|
D|--7-7--6-6--7-7------------7--7-7--6-6--7-7-------5h7-----5h7~--|
A|--7-7--4-4--5-5---------------7-7--4-4--5-5---5h7-----5h7-------|
E|--5-5-------------------------5-5-------------------------------|


e|----------------------|
B|----------------------|
G|----------------------|
D|--7-7--4-4--2-2--4-4--|
A|--7-7--4-4--2-2--4-4--|
E|--5-5--2-2--0-0--2-2--|


                      (let the string ring/blend together on this part)
e|--7-5---7-5---7-5---7-5--|------5-5---5-5-----5-5---5--|
B|------7-----7-----7------|--7-------7-------7-------7--|
G|-------------------------|-----------------------------|
D|-------------------------|-----------------------------|
A|-------------------------|-----------------------------|
E|-------------------------|-----------------------------|


e|--------------------------------------------------10-10-10-10-10-10-10-10-10-10-10-10---|
B|---10-12-12-12-12-12-12--10-12-12-12-12-12-12--10-----------------------------0--0--0---|
G|---------------------------------------------------------------------------------0--0---|
D|----------------------------------------------------------------------------------------|
A|----------------------------------------------------------------------------------------|
E|----------------------------------------------------------------------------------------|


| /  slide up
| \  slide down
| h  hammer-on
| p  pull-off
| ~  vibrato
| +  harmonic
| x  Mute note
| b  Bend note
| r  Return bend
===============================================================================
Tap to rate this tab
 
# A B C D E F G H I J K L M N O P Q R S T U V W X Y Z