Guitaretab - guitar tabs
Song name
# A B C D E F G H I J K L M N O P Q R S T U V W X Y Z

Fall Out Boy - Tell That Mick He Just Made My List Of Things To Do Today tab

Fall Out Boy
"Tell That Mick He Just Made My List of Things to do Today"
Standard Tuning

Tabbed by: chckndmplngs

Key:
x=quick stop
/ or \=slide up or down
~=let ring
h=hammer-on
p=pull-off

Intro pt. 1
e|-----------------|
B|-----------------|
G|-----------------|
D|-2222222222222222|
A|-2222222222222222|
E|-0000000000000000|

Intro pt. 2 guitar 1 x4
e|-4444-5555-2222-4444-0000-2222-0000-2222-|
B|-5555-5555-4444-4444-2222-2222-2222-2222-|
G|-----------------------------------------|
D|-----------------------------------------|
A|-----------------------------------------|
E|-----------------------------------------|

Intro pt. 2 guitar 2 (after guitar 1 plays twice)
e|---------------------------------------------|
B|---------------------------------------------|
G|-------------------44444444-66666666---------|
D|-\22~--22-22222222-44444444-66666666---6-4---|
A|-\22~--22-22222222-22222222-44444444-------7-|
E|-\00~--00-00000000-------------------0-------|

Verse pt. 1 x4  
e|--------------------------------------|
B|--------------------------------------|
G|----------66666666--------------------|
D|-22222222-66666666-66666666-7777777/9-|
A|-22222222-44444444-66666666-7777777/9-|
E|-00000000----------44444444-5555555/7-|

Verse pt. 2 guitar 1 x4
e----------------------------------------------------------------|
B----------------------------------------------------------------|
G-9-99-9998-88-8889-99-9998-88-8889-99-9998----8h9p8-------------|
D-9-99-9999-99-9999-99-9999-99-9999-99-9999-8h9-----9------------|
A----------------------------------------------------------------|
E----------------------------------------------------------------|

Verse pt. 2 guitar 2 (after guitar 1 plays twice)
e------------------------------|---------------------------------|
B------------------------------|---------------------------------|
G---8-898---8-898--------------|-9p8h9p8h9p8h9p8h9p8h9p8h9p8-----|
D-99-----9-9-----9-------------|---------------------------------|
A------------------------------|---------------------------------|
E------------------------------|---------------------------------|
\______________________________/
              x3

Pre chorus x2
e|--------------------------------------------------------------------|
B|--------------------------------------------------------------------|
G|-2222222222222222-66666666-44444444-2222222222222222-666-444-6/4444-|
D|-2222222222222222-66666666-44444444-2222222222222222-666-444-6/4444-|
A|-0000000000000000-44444444-22222222-0000000000000000-444-222-4/2222-|
E|--------------------------------------------------------------------|

Chorus x2
e|--- 0----0----0-----------|
B|----0----0----0-----------|
G|------66------------------|
D|-22---66---66---77-7/9999-|
A|-22---44---66---77-7/9999-|
E|-00--------44---55-5/7777-|

Intro
e|-4444-5555-2222-4444-0000-2222-0000-2222-|
B|-5555-5555-4444-4444-2222-2222-2222-2222-|
G|-----------------------------------------|
D|-----------------------------------------|
A|-----------------------------------------|
E|-----------------------------------------|
[ Tab from: http://www.guitaretab.com/f/fall-out-boy/48577.html ]
e|-4444-5555-2222-4444-0000-2222--00-2222----|
B|-5555-5555-4444-4444-2222-2222--22-2222-9~\|
G|----------------------------------------9~\| (Let ring then slide)
D|----------------------------------------9~\|
A|----------------------------------------7~\|
E|-------------------------------------------|

No guitar until “breaking hearts”

Verse pt. 2
e|--------------------------------------|
B|--------------------------------------|
G|--------------------44444444-66666666-|
D|-xxx2~--22-22222222-44444444-66666666-|
A|-xxx2~--22-22222222-22222222-44444444-|
E|-xxx0~--00-00000000-------------------|

Pre chorus x2
e|--------------------------------------------------------------------|
B|--------------------------------------------------------------------|
G|-2222222222222222-66666666-44444444-2222222222222222-666-444-6/4444-|
D|-2222222222222222-66666666-44444444-2222222222222222-666-444-6/4444-|
A|-0000000000000000-44444444-22222222-0000000000000000-444-222-4/2222-|
E|--------------------------------------------------------------------|

Chorus x2
e|--- 0----0----0-----------|
B|----0----0----0-----------|
G|------66------------------|
D|-22---66---66---77-7/9999-|
A|-22---44---66---77-7/9999-|
E|-00--------44---55-5/7777-|

Verse x2  
e|--------------------------------------|
B|--------------------------------------|
G|----------66666666--------------------|
D|-22222222-66666666-66666666-7777777/9-|
A|-22222222-44444444-66666666-7777777/9-|
E|-00000000----------44444444-5555555/7-|

Bridge pt. 1
e|-----------|
B|-----------|
G|-----------|
D|-2~---222~-|
A|-2~---222~-|
E|-0~---000~-|

e|---4444-5555-2222-4444-0000-2222-0000-2222-|
B|-555555-5555-4444-4444-2222-2222-2222-2222-|
G|-------------------------------------------|
D|-------------------------------------------|
A|-------------------------------------------|
E|-------------------------------------------|

e|-4444-5555-2222-4444-0000-2222-0000-2x-|
B|-5555-5555-4444-4444-2222-2222-2222-2x-|
G|---------------------------------------|
D|---------------------------------------|
A|---------------------------------------|
E|---------------------------------------|

Bridge pt. 2 x2
e|-4444-5555-2222-4444-0000-2222-0000-2222-|
B|-5555-5555-4444-4444-2222-2222-2222-2222-|
G|-----------------------------------------|
D|-----------------------------------------|
A|-----------------------------------------|
E|-----------------------------------------|

Bridge pt. 3 guitar 1 x2
e|-4444-5555-2222-4444-0000-2222-0000-2222-|
B|-5555-5555-4444-4444-2222-2222-2222-2222-|
G|-----------------------------------------|
D|-----------------------------------------|
A|-----------------------------------------|
E|-----------------------------------------|

Bridge pt. 3 guitar 2
e|-------------------------------------------|
B|-------------------------------------------|
G|----8-8h9p8---998-8h9p8---7-7h8p7-87-7h8p7-|
D|--99-9-----9------------88-8---------------|
A|-------------------------------------------|
E|-------------------------------------------|

e|------------------------------------------|
B|--------9------8h9p8---------8--------8-8-|
G|---8-898----8------------8-89-9--98-98-8--|
D|-99-9-----99-9---------99-9-----9---------|
A|------------------------------------------|
E|------------------------------------------|


Outro
e|---0---0---0----|
B|---0---0---0----|
G|----------------|
D|-------------7~-|
A|-----4-------7~-|
E|-0-------4---5~-|
Related for Tell That Mick He Just Made My List Of Things To Do Today tab
Advertisement will be closed in 10 seconds