Song name
# A B C D E F G H I J K L M N O P Q R S T U V W X Y Z

Fall Out Boy - Saturday tab

                        Fall Out Boy-Saturday

The other tabs didn't put both guitars so I thought I might aswell tab this 
           Please rate and comment! This took me very long to do.
                                   Thanx :P


Intro Part One 1x Guitars 1 and 2
E-----------------------------------------------------|
B-----------------------------------------------------|
G---------------------------------------666666666666--|
D--666666666666-999999999999-2-22-22-22-666666666666--|
A--666666666666-999999999999-2-22-22-22-444444444444--|
E--444444444444-777777777777-0-00-00-00---------------|

Intro Part Two 1x Guitar 1
E-----------------------------------------------------------|
B-----------------------------------------------------------|
G-----------------------------------------------------------|
D--222222222222-66-88-9999-22222222222222222222222222222222-|
A--222222222222-66-88-9999-22222222222222222222222222222222-|
E--000000000000-44-66-7777-00000000000000000000000000000000-|

Guitar 2
E-----------------------------------------------------------|
B-----------------------------------------------------------|
G--999999999999------------99-88-66-44-99999/1111-88888/99--|
D--xxxxxxxxxxxx-66-88-9999-xx-xx-xx-xx-99999/1111-88888/99--|
A--777777777777-66-88-9999-77-66-44-22-77777/9-9--66666/77--|
E---------------44-66-7777----------------------------------|

Verse 2x Guitar 1 
E---------------------------------------------------------------|
B---------------------------------------------------------------|
G---------------------------------------------------------------|
D--666666666666-/-222222222222-/-444444444444-/-222222222222-/--|
A--666666666666-/-222222222222-/-444444444444-/-222222222222-/--|
E--444444444444-/-000000000000-/-222222222222-/-000000000000-/--|
PM  ...........    ...........    ...........    ...........

Verse Part One 1x Guitar 2
E-----------------------------------------------------------|
B-----------------------------------------------------------|
G--------------------------------------------------88-66-44-|
D--666666666666-/-222222222222-/-444444444444-/-2--xx-xx-xx-|
A--666666666666-/-222222222222-/-444444444444-/-2--66-44-22-|
E--444444444444-/-000000000000-/-222222222222-/-0-----------|
PM  ...........    ...........    ...........

Verse Part Two 1x Guitar 2
E------------------------------------------------------------|
B--99999999999-1212121212121212-11111111111111-121212121212--|
G------------------------------------------------------------|
D------------------------------------------------------------|
A------------------------------------------------------------|
E------------------------------------------------------------|

Pre Chorus 1x Guitar 1 and 2
E----------|
B----------|
G------9~--| )
D--4-6-9~--| )Pickslide all three strings (A, D and G)
A--4-6-7~--| )
E--2-4-----|

Chorus Part One 2x Guitar 1
E-------------------------------------|
B-------------------------------------|
G------------------------66666-99999--|
D--9999999999-9999999999-66666-99999--|
A--9999999999-9999999999-44444-77777--|
E--7777777777-6666666666--------------|

Chorus Part One 2x Guitar 2
E------------------------------------------|
B------------------------------------------|
G-------------111111111111111-66666-99999--|
D--9999999999-111111111111111-66666-99999--|
A--9999999999-9-9-9-9-9-9-9-9-44444-77777--|
E--7777777777------------------------------|

Chorus Part Two 2x Guitars 1 and 2
E-------------------------------|
B-------------------------------|
G------------------66666-99999--|
D--9999----9999----66666-99999--|
A--9999----9999----44444-77777--|
E--7777----6666-----------------|

Verse 2 Part One 1x Guitar 1
E------------------------------|
B------------------------------|
G------------------------------|
D--6~--/--2~--/--4~--/--2~-xx--|
A--6~--/--2~--/--4~--/--2~-xx--|
E--4~--/--0~--/--2~--/--0~-xx--|

Verse 2 Part One 1x Guitar 2
E--------------------------|
B--------------------------|
G-------------11-----8-8---| )
D--6~------9~--x-8~--x-x---| )Pickslide
A--6~------9~--9-8~--6-6---| )
E--4~--4h6-7~----6~--------| 

Verse 2 Part Two 1x Guitar 1
E---------------------------------------------------------------|
B---------------------------------------------------------------|
G---------------------------------------------------------------|
D--666666666666-/-222222222222-/-444444444444-/-222222222222-/--|
A--666666666666-/-222222222222-/-444444444444-/-222222222222-/--|
E--444444444444-/-000000000000-/-222222222222-/-000000000000-/--|
PM  ...........    ...........    ...........    ...........

Verse 2 Part Two 1x Guitar 2
E-----------------------------------------------|
B-----------------------------------------------|
G--4444444444-9999999999-8888888888-9999999999--|
D--xxxxxxxxxx-xxxxxxxxxx-xxxxxxxxxx-xxxxxxxxxx--|
A--2222222222-7777777777-6666666666-7777777777--|
E-----------------------------------------------|

Repeat Pre Chorus

Repeat Chorus Part One 2x

Repeat Chorus Part Two 2x

Guitar 2 Solo/Interlude
E---2-0--------2-0--------2-0--------2-0--------2-0--------2-0-------
B--0-0-4-2p0--0-0-4-2p0--0-0-4-2p0--0-0-4-2p0--0-0-4-2p0--0-0-4-2p0--
G--------------------------------------------------------------------
D--------------------------------------------------------------------
A--------------------------------------------------------------------
E--------------------------------------------------------------------

Guitar 1 Interlude (During the Solo)
E--------------------------------------------------------------------
B--------------------------------------------------------------------
G--------------------------------------------------------------------
D-9~-----------------------------------------2~---------4~-----------
A-9~-----------------------------------------2~---------4~-----------
E-7~-----------------------------------------0~---------2~-----------

(Solo Continued)
E---2-0--------2-0--------2-0--------2-0--------2-0--------|
B--0-0-4-2p0--0-0-4-2p0--0-0-4-2p0--0-0-4-2p0--0-0-4-2p0---|
G----------------------------------------------------------|
D----------------------------------------------------------|
A----------------------------------------------------------|
E----------------------------------------------------------|

(Guitar 2 Interlude Continued)
E----------------------------------------------------------|
B----------------------------------------------------------|
G----------------------------------------------------------|
D-6~---------9--8--9--2~----------4~---------6~--------9---|
A-6~---------9--8--9--2~----------4~---------6~--------9---|
E-4~---------7--6--7--0~----------2~---------4~--------7---|

Bridge Part One 4x Guitars 1 and 2
E------------------------|
B------------------------|
G------------------------|
D--2222-4444-6666-9999---|
A--2222-4444-6666-9999---|
E--0000-2222-4444-7767---|

Bridge Part Two 1x
E-------|------------22x2x2xx2-|-------------|
B-------|---x4x4x44xx22x2x2xx2-|-------------|
G-------|---x4x4x44xx33x3x3xx3-|-6666-9999---|
D--9~---|---x4x4x44xx44x4x4xx4-|-6666-9999---|
A--9~---|---x2x2x22xx44x4x4xx4-|-4444-7777---|
E--7~---|------------22x2x2xx2-|-------------|
          <<>>

Chorus Part One 1x

Chorus Part Two 2x  (Guitar One plays it four times)

Post Chorus 2x Guitar 2
E---------------------------------------|
B---------------------------------------|
G--------------------------66666-99999--|
D--9999--------9999--------66666-99999--|
A--9999--------9999--------44444-77777--|
E--7777-7h9p7--6666-6h7p6---------------|

Outro 1x Guitars 1 and 2
E--------------|
B--------------|
G----------9~--|
D--4--6--9-9~--|
A--4--6--9-7~--|
E--2--4--7-----|
Tap to rate this tab
# A B C D E F G H I J K L M N O P Q R S T U V W X Y Z