Song name
# A B C D E F G H I J K L M N O P Q R S T U V W X Y Z

Fall Out Boy - The Worlds Not Waiting tab

Help us improve GuitareTab! Take a short survey!
Song: The Worlds Not Waiting (For Five Tired Boys And A Broken Down Van)
Artist: Fall Out Boy
Album: Evening Out With Your Girlfriend


This isnt going to be exactly 100% correct but its what sounded right to me. If you have 
questions or comments email me at aheroslastmisson@hotmail.com or aheroslastmisson@aim.com


*: Palm mute
~: Pick slide
/: Hold
p: pull off

Verse 1
e|----------------------------------------------|    e|--------------------|
B|----------------------------------------------|    B|--------------------|
G|------------7----6----------------------------| x2 G|--------------------|
D|--7----6----7-x5-6-x5--4-4-----7-7-----6-6----|    D|--7--7----7-~pick~--|
A|--7-x5-6-x5-5----4-----4-4-x8?-7-7-x5--6-6-x5-|    A|--7--7-x2-7-~slide~-|
E|--5----4---------------2-2-----5-5-----4-4----|    E|--5--5----5---------|
                           *       *       *             /       /
"This might just be..."
"My time with than...."

Verse 2
e|---------------------------------------------------------|
B|---------------------------------------------------------|
G|-----------------------------7----7-7----7-6----6-6----6-|
D|-7----7-7----7-6----6-6----6-7-x2-7-7-x2-7-6-x2-6-6-x2-6-| x4
A|-7-x2-7-7-x2-7-6-x2-6-6-x2-6-5----5-5----5-4----4-4----4-|
E|-5----5-5----5-4----4-4----4-----------------------------|
   *      *      *      *      *      *      *      *
'We'll all take turns..."
"We're all in the back siging..."

e|---------------------|
B|---------------------|
G|----------7----6-----|
D|--7---6---7-x5-6-x5--|
A|--7---6---5----4-----|
E|--5---4--------------|
"Pass us by..."

e|---------------------------------------------------------|
B|---------------------------------------------------------|
G|-----------------------------7----7-7----7-6----6-6----6-|
D|-7----7-7----7-6----6-6----6-7-x2-7-7-x2-7-6-x2-6-6-x2-6-| x4
A|-7-x2-7-7-x2-7-6-x2-6-6-x2-6-5----5-5----5-4----4-4----4-|
E|-5----5-5----5-4----4-4----4-----------------------------|
   *      *      *      *      *      *      *      *
"Enough to try to catch up..."
"Enough to make up for lost time..."

Bridge
e|---------------------|    e|----|   e|-------------|    e|-------------|
B|---------------------|    B|----|   B|---3p2-5-3-2-|    B|-------------|
G|---------------------| x4 G|----|   G|-------------| x6 G|-------------|
D|--7----2----4----2---|    D|--7-|   D|-------------|    D|--7------7---|
A|--7----2----4----2---|    A|--7-|   A|-------------|    A|--7-x49?-7---|
E|--5----0----2----0---|    E|--5-|   E|-------------|    E|--5------5---|
                                                              *
"We've been down..."

Ending    Gutiar 1                      Guitar 2 (after drum fill)
e|-----------------------|           e|----------------------|
B|-----------------------|           B|----------------------|
G|-----------------------| xtill end G|------------7----6----| xtill end
D|--7----2----4----2-----|           D|--7----6----7-x5-6-x5-|
A|--7-x5-2-x5-4-x5-2-x5--|           A|--7-x5-6-x5-5----4----|
E|--5----0----2----0-----|           E|--5----4--------------|


"We've been down...."


e|-----|
B|-----|
G|-----|
D|--7--|
A|--7--|
E|--5--|
Related for The Worlds Not Waiting tab