Guitaretab - guitar tabs
Song name
# A B C D E F G H I J K L M N O P Q R S T U V W X Y Z

Fall Out Boy - Pretty In Punk tab

tabber-Steven Stratton
E-mail:Pnkr0cker@msn.com

Tuning standard
e
b
g
d
a
e
            This is an easy song, Pretty accurate.
    Guitar 1
e|----------------------------|
B|----------------------------|
G|-----------2~------42-----42|  2X
D|----------------------444~--|
A|--000~40------444~----------|
E|--------2h0-----------------|




guitar 1
e|-----------------------------------|
B|-----------------------------------|
G|--2-222-222------------------------| 4X
D|--2-222-222-222-224-444-444-222-22-|
A|--0-000-000-222-224-444-444-222-22-|
E|------------000-002-222-222-000-00-|

Guitar 2

e|---------------------|
B|---------------------|
G|--9-999-999-x1111-xx-| 8X
D|--x-xxx-xxx-x x x-xx-|
A|--7-777-777-x 9 9-xx-|
E|---------------------|


Guitars 1 and 2

e|-----------------|
B|-----------------|
G|--2~~~~~~~~~~~~~-|
D|--2~~~~~~~~~~~~~-|
A|--0~~~~~~~~~~~~~-|
E|-----------------|
      Walking off that stage tonight...


guitars 1 and 2

e|-----------------------------|-----------------------|
B|-----------------------------|-----------------------|
G|--22-22--------66-66--77-77--|--22-22---------66-66--|
D|--22-22--22-22-66-66--77-77--|--22-22--22-22--66-66--|
A|--00-00--22-22-44-44--55-55--|--00-00--22-22--44-44--|
E|---------00-00---------------|---------00-00---------|

I was terrified...

e|------------------|
B|------------------|
G|7777777777777777--|
D|7777777777777777--|
A|5555555555555555--|
E|------------------|

Guitars one and two

e|-----------------|-------------------|------------------|
B|-----------------|-------------------|------------------|
G|4-44444444446-66-|--7-77777777777777-|------------------|
D|4-44444444446-66-|--7-77777777777777-|--4-444-444-444-44|
A|2-22222222224-44-|--5-55555555555555-|--4-444-444-444-44|
E|-----------------|-------------------|--2-222-222-222-22|
I'v seen your boyfriend...


e|-------------------|
B|-------------------|
G|-------------------|
D|--2-222-222-222-22-|
A|--2-222-222-222-22-|
E|--0-000-000-000-00-|




guitars 1 and 2

e|-----------------|-------------------|
B|-----------------|-------------------|
G|4-44444444446-66-|--7~~~~~~~~~~~-----|
D|4-44444444446-66-|--7~~~~~~~~~~~-----|
A|2-22222222224-44-|--5~~~~~~~~~~~-----|
E|-----------------|-------------------|

Thats none of my bussiness is it?...


CHORUS

e|----------------------------|
B|----------------------------|
G|-----------2~------42-----42|  4X
D|----------------------444~--|  You can hear this part in the chorus barely
A|--000~40------444~----------|
E|--------2h0-----------------|


Guitar two

e|-----------------------------------|
B|-----------------------------------|
G|--2-2-2-22--------6-6-6-667-7-7-77-|
D|--2-2-2-224-4-4-446-6-6-667-7-7-77-| 4X
A|--0-0-0-004-4-4-444-4-4-445-5-5-55-|
E|----------2-2-2-22-----------------|

Im not the way you think i am...

Verse

guitar 1

e|-------------|
B|-------------|
G|--2~~~~~~~~~-|
D|--2~~~~~~~~~-|
A|--0~~~~~~~~~-|
E|-------------|

Guitar 2

e|----------------|-----------------------|
B|----------------|-----------------------|
G|--5g7-4g6---7g9-|--6-7-7g9-5g7-4g6------| 4X
D|---------6g7----|------------------7~~~-|
A|----------------|-----------------------|
E|----------------|-----------------------|
The only girl...

******g=grace note!let ring throughout*************



guitars 1 and 2

e|-----------------------------|-----------------------|
B|-----------------------------|-----------------------|
G|--22-22--------66-66--77-77--|--22-22---------66-66--|
D|--22-22--22-22-66-66--77-77--|--22-22--22-22--66-66--|
A|--00-00--22-22-44-44--55-55--|--00-00--22-22--44-44--|
E|---------00-00---------------|---------00-00---------|

I was terrified...

e|------------------|
B|------------------|
G|7777777777777777--|
D|7777777777777777--|
A|5555555555555555--|
E|------------------|

Guitars one and two

e|-----------------|-------------------|------------------|
B|-----------------|-------------------|------------------|
G|4-44444444446-66-|--7-77777777777777-|------------------|
D|4-44444444446-66-|--7-77777777777777-|--4-444-444-444-44|
A|2-22222222224-44-|--5-55555555555555-|--4-444-444-444-44|
E|-----------------|-------------------|--2-222-222-222-22|
I'v seen your boyfriend...

[ Tab from: http://www.guitaretab.com/f/fall-out-boy/49452.html ]
e|-------------------|
B|-------------------|
G|-------------------|
D|--2-222-222-222-22-|
A|--2-222-222-222-22-|
E|--0-000-000-000-00-|




guitars 1 and 2

e|-----------------|-------------------|
B|-----------------|-------------------|
G|4-44444444446-66-|--7~~~~~~~~~~~-----|
D|4-44444444446-66-|--7~~~~~~~~~~~-----|
A|2-22222222224-44-|--5~~~~~~~~~~~-----|
E|-----------------|-------------------|

Thats none of my bussiness is it?...


CHORUS


CHORUS

e|----------------------------|
B|----------------------------|
G|-----------2~------42-----42|  4X
D|----------------------444~--|  You can hear this part in the chorus barely
A|--000~40------444~----------|
E|--------2h0-----------------|


Guitar two

e|-----------------------------------|
B|-----------------------------------|
G|--2-2-2-22--------6-6-6-667-7-7-77-|
D|--2-2-2-224-4-4-446-6-6-667-7-7-77-| 4X
A|--0-0-0-004-4-4-444-4-4-445-5-5-55-|
E|----------2-2-2-22-----------------|

Im not the way you think i am...

Interlude
Guitar2

e|----|
B|----|
G|--2-|
D|--2-|
A|--0-|
E|----|

Guitar one
Riff
e|----------------------------------|
B|----------------------------------|
G|----------------------------------| 4X
D|----7---7-447-447---7---7-007-007-|
A|--00--00----------44--44----------|
E|----------------------------------|
PM  **  **  **  **  **  **  **  **
guitar two

e|-----------------------|
B|-----------------------|
G|--66667777111111119999-|
D|--xxxxxxxxxxxxxxxxxxxx-|
A|--444455559 9 9 9 7777-|
E|-----------------------|


guitar one

e|-------------------|-------------------|------------------|
B|--------2222220022-|--------2222220022-|--------2222220022|
G|--22-22------------|-------------------|------------------|
D|--22-22------------|--22-22------------|--44-44-----------|
A|--00-00------------|--22-22------------|--44-44-----------|
E|-------------------|--00-00------------|--22-22-----------|

Guitar2

e|-------------------|-------------------|-------------------|
B|-------------------|-------------------|-------------------|
G|--22-22-2222220022-|--------2222220022-|--------2222220022-|
D|--22-22------------|--22-22------------|--44-44------------|
A|--00-00------------|--22-22------------|--44-44------------|
E|-------------------|--00-00------------|--22-22------------|



both guitars

e|-------------------|
B|-------------------|
G|--66x66-xx77x777xx-|
D|--66x66-xx77x777xx-|
A|--44x44-xx55x555xx-|
E|-------------------|



guitar one

e|-------------------|-------------------|------------------|
B|--------2222220022-|--------2222220022-|--------2222220022|
G|--22-22------------|-------------------|------------------|
D|--22-22------------|--22-22------------|--44-44-----------|
A|--00-00------------|--22-22------------|--44-44-----------|
E|-------------------|--00-00------------|--22-22-----------|

Guitar2

e|-------------------|-------------------|-------------------|
B|-------------------|-------------------|-------------------|
G|--22-22-2222220022-|--------2222220022-|--------2222220022-|
D|--22-22------------|--22-22------------|--44-44------------|
A|--00-00------------|--22-22------------|--44-44------------|
E|-------------------|--00-00------------|--22-22------------|



both guitars

e|-------------------|
B|-------------------|
G|--66x66-xx77x777xx-|
D|--66x66-xx77x777xx-|
A|--44x44-xx55x555xx-|
E|-------------------|




CHORUS

CHORUS

e|----------------------------|
B|----------------------------|
G|-----------2~------42-----42|  4X
D|----------------------444~--|  You can hear this part in the chorus barely
A|--000~40------444~----------|
E|--------2h0-----------------|


Guitar two

e|-----------------------------------|
B|-----------------------------------|
G|--2-2-2-22--------6-6-6-667-7-7-77-|
D|--2-2-2-224-4-4-446-6-6-667-7-7-77-| 4X
A|--0-0-0-004-4-4-444-4-4-445-5-5-55-|
E|----------2-2-2-22-----------------|

Im not the way you think i am...


Both Guitars

e|-----------|----------|----------|---------------|
B|-----------|----------|----------|---------------|
G|--5-5-5-55-|----------|-9-9-9-99-|-10-10-10-1010-|
D|--5-5-5-55-|-7-7-7-77-|-9-9-9-99-|-10-10-10-1010-|
A|--3-3-3-33-|-7-7-7-77-|-7-7-7-77-|--8--8--8--8-8-|
E|-----------|-5-5-5-55-|----------|---------------|

Im not the way you think i am...

play until end and speed tempo.












Related for Pretty In Punk tab
Advertisement will be closed in 10 seconds