Song name
# A B C D E F G H I J K L M N O P Q R S T U V W X Y Z

Fall Out Boy - Switchblades And Infidelity tab


Standard Tunning       

----------------------------------------------------------------------------
---------------Fall Out Boy - Switchblades and Infidelity-------------------
----------------------------------------------------------------------------

Here is a WAY better tab of the song. id say 100% right.its also on gp5 so if youd rather that check it out.

Guitar 1

e|----------------------------|
B|----------------------------|
G|----------4444444444444444--| x2
D|--666-444-4444444444444444--|
A|--666-444-2222222222222222--|
E|--444-222-------------------|

Guitar 2

e|----------------------------|
B|----------------------------|
G|----------4-4/66-6/88-8/99--|
D|--666-444-x-x-xx-x-xx-x-xx--| x2  
A|--666-444-2-2/44-4/66-6/77--|
E|--444-222-------------------|

Guitar 1

e|----------------|                    e|-----------------------------|
B|----------------|                    B|----------------------7-5-4--|
G|--10-9-7-9-7-5--| x4 then like this  G|--10-9-7-9-7-5-10-9-7--------| x2
D|----------------|                    D|-----------------------------|
A|----------------|                    A|-----------------------------|
E|----------------|                    E|-----------------------------|

Guitar 2 (After first 4 times with guitar one) 
        
e|--9-7-5-7-5-4--|
B|---------------|
G|---------------|
D|---------------| x4
A|---------------|
E|---------------|

Both Guitars

e|------------------------------------------------------------------------|
B|------------------------------------------------------------------------|
G|--4---------------------------------------------------------------------|
D|--4444444444444444-2----------------6--------4--------2-----------------|
A|--2222222222222222-2222222222222222-66666666-44444444-2222222222222222--|
E|-------------------0000000000000000-44444444-22222222-0000000000000000--|

e|---------------------------------------------------|
B|---------------------------------------------------|
G|--4------------------------------------------------|
D|--4444444444444444-2----------------6-64-42-2-2--|
A|--2222222222222222-2222222222222222-6-64-42-2-2--|
E|-------------------0000000000000000-4-42-20-0-0--|

Guitar 1

e|---------------------------------------------------|
B|---------------------------------------------------|
G|--4444-4444-4--------------------------------------|
D|--4444-4444-4-6666-6666-6-4444-4444-4-2222-2222-2--| x4
A|--2222-2222-2-6666-6666-6-4444-4444-4-2222-2222-2--|
E|--------------4444-4444-4-2222-2222-2-0000-0000-0--|

Guitar 2

e|---------------|
B|---------------|
G|--4444-4444-4--| x8
D|---------------|
A|---------------|
E|---------------|

Both Guitars

e|------------------------------------------------------------------------|
B|------------------------------------------------------------------------|
G|--4---------------------------------------------------------------------|
D|--4444444444444444-2----------------6--------4--------2-----------------|
A|--2222222222222222-2222222222222222-66666666-44444444-2222222222222222--|
E|-------------------0000000000000000-44444444-22222222-0000000000000000--|
                        /|\
Play 3 times on 2nd verse|

e|---------------------------------------------------|
B|---------------------------------------------------|
G|--4------------------------------------------------|
D|--4444444444444444-2----------------6-64-42-2-2----|
A|--2222222222222222-2222222222222222-6-64-42-2-2----|
E|-------------------0000000000000000-4-42-20-0-0----|

Chorus agian

Guitar 1

e|-----------|                      e|------------|
B|-----------|                      B|------------|
G|--434-434--| x8 then like this    G|--43434343--|
D|-----------|                      D|------------| x8
A|-----------|                      A|------------|
E|-----------|                      E|------------|

Listen hard for this part

Guitar 2

e|--------------------|
B|--4-4-7-7-5-5-7-7---|
G|---4-4-4-4-4-4-4-4--|
D|--------------------| 8 times
A|--------------------|
E|--------------------|

Guitar 1

e|---------------------------------------------------|
B|---------------------------------------------------|
G|---------------------------------------------------|
D|--4444-4444-4--------------------------------------| x4
A|--2222-2222-2-6666-6666-6-4444-4444-4-2222-2222-2--|
E|--------------4444-4444-4-2222-2222-2-0000-0000-0--|

  PM-----------------------------------------------]

Guitar 2

e|--------------|
B|--7-5-4h5-0~--|
G|--------------| x8
D|--------------|
A|--------------|
E|--------------|
Tap to rate this tab
 
# A B C D E F G H I J K L M N O P Q R S T U V W X Y Z