Song name
# A B C D E F G H I J K L M N O P Q R S T U V W X Y Z

Fall Out Boy - Nobody Puts Baby In The Corner tab

#----------------------------------PLEASE NOTE---------------------------------#
#This file is the author's own work and represents their interpretation of the #
#song. You may only use this file for private study, scholarship, or research. #
#------------------------------------------------------------------------------##

                         NOBODY PUTS BABY IN THE CORNER
                           As recorded by Fall Out Boy
       (From the 2004 EP MY HEART WILL ALWAYS BE THE B-SIDE TO MY TONGUE)


Gtr I (E A D G B E) - 'Lead'
Gtr II (E A D G B E) - 'Rhythm'

   1st Verse
    Q=94
    C
   4/4
    Gtr I
    S +S  S S +S  S S S +S  S S S +S  S S S
||--x-(x)-x-x-(x)-x-x-x-(x)-x-x-x-(x)-x-x-x-|
||o-1-(1)-1-1-(1)-1-1-1-(1)-1-1-1-(1)-1-1-1-|
||--0-(0)-0-0-(0)-0-0-0-(0)-0-0-0-(0)-0-0-0-|
||--2-(2)-2-2-(2)-2-2-2-(2)-2-2-2-(2)-2-2-2-|
||o-3-(3)-3-3-(3)-3-3-3-(3)-3-3-3-(3)-3-3-3-|
||------------------------------------------|


  Em
  S +S  S S +S  S S S +S  S S S +S  S S S
|-x-(x)-x-x-(x)-x-x-x-(x)-x-x-x-(x)-x-x-x--||
|-0-(0)-0-0-(0)-0-0-0-(0)-0-0-0-(0)-0-0-0-o||
|-0-(0)-0-0-(0)-0-0-0-(0)-0-0-0-(0)-0-0-0--||
|-2-(2)-2-2-(2)-2-2-2-(2)-2-2-2-(2)-2-2-2--||
|-2-(2)-2-2-(2)-2-2-2-(2)-2-2-2-(2)-2-2-2-o||
|-0-(0)-0-0-(0)-0-0-0-(0)-0-0-0-(0)-0-0-0--||


    F
    S +S  S S S S +S  S S +S  S S S S +S  S
||--x-(x)-x-x-x-x-(x)-x-x-(x)-x-x-x-x-(x)-x-|
||o-1-(1)-1-x-1-1-(1)-x-1-(1)-1-x-1-1-(1)-x-|
||--2-(2)-2-x-2-2-(2)-x-2-(2)-2-x-2-2-(2)-x-|
||--3-(3)-3-x-3-3-(3)-x-3-(3)-3-x-3-3-(3)-x-|
||o-3-(3)-3-x-3-3-(3)-x-3-(3)-3-x-3-3-(3)-x-|
||--1-(1)-1-x-1-1-(1)-x-1-(1)-1-x-1-1-(1)-x-|


  C
  S +S  S S S S +S  S S +S  S S S S +S  S
|-x-(x)-x-x-x-x-(x)-x-x-(x)-x-x-x-x-(x)-x---||
|-1-(1)-1-x-1-1-(1)-x-1-(1)-1-x-1-1-(1)-x--o||
|-0-(0)-0-x-0-0-(0)-x-0-(0)-0-x-0-0-(0)-x---||
|-2-(2)-2-x-2-2-(2)-x-2-(2)-2-x-2-2-(2)-x---||
|-3-(3)-3-x-3-3-(3)-x-3-(3)-3-x-3-3-(3)-x--o||
|-------------------------------------------||


  G                                         F                   G
  S +S  S S +S  S S S +S  S S S +S  S S S   S +S  S S +S  S S S S +S  S S +S  S S S
|-3-(3)-3-3-(3)-3-3-3-(3)-3-3-3-(3)-3-3-3-|-1-(1)-1-1-(1)-1-1-1-3-(3)-3-3-(3)-3-3-3-|
|-3-(3)-3-3-(3)-3-3-3-(3)-3-3-3-(3)-3-3-3-|-1-(1)-1-1-(1)-1-1-1-3-(3)-3-3-(3)-3-3-3-|
|-0-(0)-0-0-(0)-0-0-0-(0)-0-0-0-(0)-0-0-0-|-2-(2)-2-2-(2)-2-2-2-0-(0)-0-0-(0)-0-0-0-|
|-0-(0)-0-0-(0)-0-0-0-(0)-0-0-0-(0)-0-0-0-|-3-(3)-3-3-(3)-3-3-3-0-(0)-0-0-(0)-0-0-0-|
|-2-(2)-2-2-(2)-2-2-2-(2)-2-2-2-(2)-2-2-2-|-3-(3)-3-3-(3)-3-3-3-2-(2)-2-2-(2)-2-2-2-|
|-3-(3)-3-3-(3)-3-3-3-(3)-3-3-3-(3)-3-3-3-|-1-(1)-1-1-(1)-1-1-1-3-(3)-3-3-(3)-3-3-3-|


  C                                       G5
  S +S  S S +S  S +S  S +S  S +S  S +S  S S S
|-x-(x)-x-x-(x)-x-(x)-x-(x)-x-(x)-x-(x)-x-----|
|-1-(1)-1-1-(1)-1-(1)-1-(1)-1-(1)-1-(1)-1-----|
|-0-(0)-0-0-(0)-0-(0)-0-(0)-0-(0)-0-(0)-0-----|
|-2-(2)-2-2-(2)-2-(2)-2-(2)-2-(2)-2-(2)-2-5-x-|
|-3-(3)-3-3-(3)-3-(3)-3-(3)-3-(3)-3-(3)-3-5-x-|
|-----------------------------------------3-x-|


  A5                  G5    C5                  G5
  S +S  S Q  Q  E +S  S S   S +S  S Q  Q  E +S  S S
|-------------------------|-------------------------|
|-------------------------|-------------------------|
|-------------------------|-5-(5)-5-x--x--x-(x)-----|
|-7-(7)-7-x--x--x-(x)-5-x-|-5-(5)-5-x--x--x-(x)-5-x-|
|-7-(7)-7-x--x--x-(x)-5-x-|-3-(3)-3-x--x--x-(x)-5-x-|
|-5-(5)-5-x--x--x-(x)-3-x-|---------------------3-x-|


  A5                  G5    C5                  G5
  S +S  S Q  Q  E +S  S S   S +S  S Q  Q  E +S  S S
|-------------------------|-------------------------|
|-------------------------|-------------------------|
|-------------------------|-5-(5)-5-x--x--x-(x)-----|
|-7-(7)-7-x--x--x-(x)-5-x-|-5-(5)-5-x--x--x-(x)-5-x-|
|-7-(7)-7-x--x--x-(x)-5-x-|-3-(3)-3-x--x--x-(x)-5-x-|
|-5-(5)-5-x--x--x-(x)-3-x-|---------------------3-x-|


  A5                  G5    C5                  G5G
  S +S  S Q  Q  E +S  S S   S +S  S Q  Q  E +S  S S
|-------------------------|-----------------------3-|
|-------------------------|-----------------------3-|
|-------------------------|-5-(5)-5-x--x--x-(x)---0-|
|-7-(7)-7-x--x--x-(x)-5-x-|-5-(5)-5-x--x--x-(x)-5-0-|
|-7-(7)-7-x--x--x-(x)-5-x-|-3-(3)-3-x--x--x-(x)-5-2-|
|-5-(5)-5-x--x--x-(x)-3-x-|---------------------3-3-|


  +S  +S  S +S  +S  S +S  s S +S  S S S S +S  s
|-(3)-(3)-3-(3)-(3)-3-(3)-3-3-(3)-3-3-3-3-(3)-3-|
|-(3)-(3)-3-(3)-(3)-3-(3)-3-3-(3)-3-3-3-3-(3)-3-|
|-(0)-(0)-0-(0)-(0)-0-(0)-0-0-(0)-0-0-0-0-(0)-0-|
|-(0)-(0)-0-(0)-(0)-0-(0)-0-0-(0)-0-0-0-0-(0)-0-|
|-(2)-(2)-2-(2)-(2)-2-(2)-2-2-(2)-2-2-2-2-(2)-2-|
|-(3)-(3)-3-(3)-(3)-3-(3)-3-3-(3)-3-3-3-3-(3)-3-|


  S +S  S +S  S S S S S S S S S S S S
|-3-(3)-3-(3)-3-3-3-3-3-3-3-3-3-3-3-3-|
|-3-(3)-3-(3)-3-3-3-3-3-3-3-3-3-3-3-3-|
|-0-(0)-0-(0)-0-0-0-0-0-0-0-0-0-0-0-0-|
|-0-(0)-0-(0)-0-0-0-0-0-0-0-0-0-0-0-0-|
|-2-(2)-2-(2)-2-2-2-2-2-2-2-2-2-2-2-2-|
|-3-(3)-3-(3)-3-3-3-3-3-3-3-3-3-3-3-3-|


 1st Chorus
  C        A5                    E5                F5
  S S Q  E S +S  S +S  S S S S   S +S  S +S  S S S S +S  S S +S  s s s s
|------------------------------|-----------------------------------------|
|-1-1--------------------------|-----------------------------------------|
|-0-0------2-(2)-2-(2)-2-2-2-2-|-----------------------------------------|
|-2-2------2-(2)-2-(2)-2-2-2-2-|-2-(2)-2-(2)-2-2-2-3-(3)-3-3-(3)-3-3-3-3-|
|-3-3------0-(0)-0-(0)-0-0-0-0-|-2-(2)-2-(2)-2-2-2-3-(3)-3-3-(3)-3-3-3-3-|
|------------------------------|-0-(0)-0-(0)-0-0-0-1-(1)-1-1-(1)-1-1-1-1-|


  C                   A5
  S +S  s +S  S S S S S +S  S +S  S S S S
|-----------------------------------------|
|-1-(1)-1-(1)-1-1-1-1---------------------|
|-0-(0)-0-(0)-0-0-0-0-2-(2)-2-(2)-2-x-2-x-|
|-2-(2)-2-(2)-2-2-2-2-2-(2)-2-(2)-2-x-2-x-|
|-3-(3)-3-(3)-3-3-3-3-0-(0)-0-(0)-0-x-0-x-|
|-----------------------------------------|


    E5            F5
  S S +S  S S S S S +S  S S S S S S S
|-------------------------------------|
|-------------------------------------|
|-2-----------------------------------|
|-2-2-(2)-2-2-x-2-3-(3)-3-3-3-3-3-3-3-|
|-0-2-(2)-2-2-x-2-3-(3)-3-3-3-3-3-3-3-|
|---0-(0)-0-0-x-0-1-(1)-1-1-1-1-1-1-1-|


  C               A5                E5              F5
  S S S S S S S S S S S S S S S S   S S S S S S S S S S S S S S S    S
|---------------------------------|-------------------------------------|
|-1-1-1-1-1-1-1-1-----------------|-------------------------------------|
|-0-0-0-0-0-0-0-0-2-2-2-2-2-2-2-2-|-------------------------------------|
|-2-2-2-2-2-2-2-2-2-2-2-2-2-2-2-2-|-2-2-2-2-2-2-2-2-3-3-3-3-3-3-3----3--|
|-3-3-3-3-3-3-3-3-0-0-0-0-0-0-0-0-|-2-2-2-2-2-2-2-2-3-3-3-3-3-3-3----3--|
|---------------------------------|-0-0-0-0-0-0-0-0-1-1-1-1-1-1-1----1--|
|
| Gtr II
| S S S S S S S S S S S S S S S S   S S S S S S S S S S S S S S S   +S
|-------------0-0-3-3-------------|-------------0-0-3-3-----------------|
|-----1-1-3-3---------1-1-3-3-1-1-|-----1-1-3-3---------1-1-3-3-1b3-(1)-|
|-0-0-----------------------------|-0-0---------------------------------|
|---------------------------------|-------------------------------------|
|---------------------------------|-------------------------------------|
|---------------------------------|-------------------------------------|


  C               A5                E5              F5
  S S S S S S S S S S S S S S S S   S S S S S S S S S S S S S S S S
|---------------------------------|---------------------------------|
|-1-1-1-1-1-1-1-1-----------------|---------------------------------|
|-0-0-0-0-0-0-0-0-2-2-2-2-2-2-2-2-|---------------------------------|
|-2-2-2-2-2-2-2-2-2-2-2-2-2-2-2-2-|-2-2-2-2-2-2-2-2-3-3-3-3-3-3-3-3-|
|-3-3-3-3-3-3-3-3-0-0-0-0-0-0-0-0-|-2-2-2-2-2-2-2-2-3-3-3-3-3-3-3-3-|
|---------------------------------|-0-0-0-0-0-0-0-0-1-1-1-1-1-1-1-1-|
|
| S S S S S S S S S S S S S S S S   S S S S S S S S S S S S S S S S
|-------------0-0-3-3-------------|-------------0-0-3-3-------------|
|-----1-1-3-3---------1-1-3-3-1-1-|-----1-1-3-3---------1-1-3-3-1-1-|
|-0-0-----------------------------|-0-0-----------------------------|
|---------------------------------|---------------------------------|
|---------------------------------|---------------------------------|
|---------------------------------|---------------------------------|


 2nd Verse
      C5                    G5  C5                 G5  A5
  S S S S S S S S S S S S S S S S   +S  S H    E S S S S
|---------------------------------|----------------------|
|---------------------------------|----------------------|
|-------------------------------5-|-(5)-5----------------|
|-----x---x---x---x---x---x-5-x-5-|-(5)-5----------5-x-7-|
|-----x---x---x---x---x---x-5-x-3-|-(3)-3----------5-x-7-|
|-----x---x---x---x---x---x-3-x---|----------------3-x-5-|


                    G5  C5                    G5  A5
  +S  S Q  Q  E +S  S S S   +S  S Q  Q  E +S  S S S
|-------------------------|-------------------------|
|-------------------------|-------------------------|
|-----------------------5-|-(5)-5-x--x--x-(x)-------|
|-(7)-7-x--x--x-(x)-5-x-5-|-(5)-5-x--x--x-(x)-5-x-7-|
|-(7)-7-x--x--x-(x)-5-x-3-|-(3)-3-x--x--x-(x)-5-x-7-|
|-(5)-5-x--x--x-(x)-3-x---|-------------------3-x-5-|


                    G5  C5                    G5  G
  +S  S Q  Q  E +S  S S S   +S  S Q  Q  E +S  S S S
|-------------------------|-----------------------3-|
|-------------------------|-----------------------3-|
|-----------------------5-|-(5)-5-x--x--x-(x)-----0-|
|-(7)-7-x--x--x-(x)-5-x-5-|-(5)-5-x--x--x-(x)-5-x-0-|
|-(7)-7-x--x--x-(x)-5-x-3-|-(3)-3-x--x--x-(x)-5-x-2-|
|-(5)-5-x--x--x-(x)-3-x---|-------------------3-x-3-|


  +S  +S  S +S  s S +S  s S +S  S S S S +S  s
|-(3)-(3)-3-(3)-3-3-(3)-3-3-(3)-3-3-3-3-(3)-3-|
|-(3)-(3)-3-(3)-3-3-(3)-3-3-(3)-3-3-3-3-(3)-3-|
|-(0)-(0)-0-(0)-0-0-(0)-0-0-(0)-0-0-0-0-(0)-0-|
|-(0)-(0)-0-(0)-0-0-(0)-0-0-(0)-0-0-0-0-(0)-0-|
|-(2)-(2)-2-(2)-2-2-(2)-2-2-(2)-2-2-2-2-(2)-2-|
|-(3)-(3)-3-(3)-3-3-(3)-3-3-(3)-3-3-3-3-(3)-3-|


  S +S  S S s S S S S S S S +S  S S S
|-3-(3)-3-3-3-3-3-3-3-3-3-3-(3)-3-3-3-|
|-3-(3)-3-3-3-3-3-3-3-3-3-3-(3)-3-3-3-|
|-0-(0)-0-0-0-0-0-0-0-0-0-0-(0)-0-0-0-|
|-0-(0)-0-0-0-0-0-0-0-0-0-0-(0)-0-0-0-|
|-2-(2)-2-2-2-2-2-2-2-2-2-2-(2)-2-2-2-|
|-3-(3)-3-3-3-3-3-3-3-3-3-3-(3)-3-3-3-|


    C
    S +S  S S +S  S S S +S  S S S +S  S S S
||--x-(x)-x-x-(x)-x-x-x-(x)-x-x-x-(x)-x-x-x-|
||o-1-(1)-1-1-(1)-1-1-1-(1)-1-1-1-(1)-1-1-1-|
||--0-(0)-0-0-(0)-0-0-0-(0)-0-0-0-(0)-0-0-0-|
||--2-(2)-2-2-(2)-2-2-2-(2)-2-2-2-(2)-2-2-2-|
||o-3-(3)-3-3-(3)-3-3-3-(3)-3-3-3-(3)-3-3-3-|
||------------------------------------------|


  Em
  S +S  S S +S  S S S +S  S S S +S  S S S
|-x-(x)-x-x-(x)-x-x-x-(x)-x-x-x-(x)-x-x-x---||
|-0-(0)-0-0-(0)-0-0-0-(0)-0-0-0-(0)-0-0-0--o||
|-0-(0)-0-0-(0)-0-0-0-(0)-0-0-0-(0)-0-0-0---||
|-2-(2)-2-2-(2)-2-2-2-(2)-2-2-2-(2)-2-2-2---||
|-2-(2)-2-2-(2)-2-2-2-(2)-2-2-2-(2)-2-2-2--o||
|-0-(0)-0-0-(0)-0-0-0-(0)-0-0-0-(0)-0-0-0---||


  F
  S +S  S S S S +S  S S +S  S S S S +S  S
|-----------------------------------------|
|-----------------------------------------|
|-2-(2)-2-x-2-2-(2)-x-2-(2)-2-x-2-2-(2)-x-|
|-3-(3)-3-x-3-3-(3)-x-3-(3)-3-x-3-3-(3)-x-|
|-3-(3)-3-x-3-3-(3)-x-3-(3)-3-x-3-3-(3)-x-|
|-1-(1)-1-x-1-1-(1)-x-1-(1)-1-x-1-1-(1)-x-|
|
| Gtr II
| S +S  S S S S  S  S S +S  S S S S  S  S
|-----------------------------------------|
|-1-(1)---1---3p=1----1-(1)---1---3p=1----|
|-------2---2-------2-------2---2-------2-|
|-----------------------------------------|
|-----------------------------------------|
|-----------------------------------------|


  C
  S +S  S S S S +S  S S +S  S S S S +S  S
|-----------------------------------------|
|-5-(5)-5-x-5-5-(5)-x-5-(5)-5-x-5-5-(5)-x-|
|-5-(5)-5-x-5-5-(5)-x-5-(5)-5-x-5-5-(5)-x-|
|-5-(5)-5-x-5-5-(5)-x-5-(5)-5-x-5-5-(5)-x-|
|-3-(3)-3-x-3-3-(3)-x-3-(3)-3-x-3-3-(3)-x-|
|-----------------------------------------|
|
| S +S  S S S S  S  S S +S  S S S S  S  S
|-0-(0)-----------------------------------|
|---------1---3p=1----1-(1)---1---3p=1----|
|-------2---2-------2-------2---2-------2-|
|-----------------------------------------|
|-----------------------------------------|
|-----------------------------------------|


  F
  S +S  S S S S +S  S S +S  S S S S +S  S
|-----------------------------------------|
|-----------------------------------------|
|-2-(2)-2-x-2-2-(2)-x-2-(2)-2-x-2-2-(2)-x-|
|-3-(3)-3-x-3-3-(3)-x-3-(3)-3-x-3-3-(3)-x-|
|-3-(3)-3-x-3-3-(3)-x-3-(3)-3-x-3-3-(3)-x-|
|-1-(1)-1-x-1-1-(1)-x-1-(1)-1-x-1-1-(1)-x-|
|
| S +S  S S S S  S  S S +S  S S S S  S  S
|-----------------------------------------|
|-1-(1)---1---3p=1----1-(1)---1---3p=1----|
|-------2---2-------2-------2---2-------2-|
|-----------------------------------------|
|-----------------------------------------|
|-----------------------------------------|


  C
  S +S  S S S S +S  S S +S  S S S S S S
|---------------------------------------|
|-5-(5)-5-x-5-5-(5)-x-5-(5)-5-x-5-5-5-5-|
|-5-(5)-5-x-5-5-(5)-x-5-(5)-5-x-5-5-5-5-|
|-5-(5)-5-x-5-5-(5)-x-5-(5)-5-x-5-5-5-5-|
|-3-(3)-3-x-3-3-(3)-x-3-(3)-3-x-3-3-3-3-|
|---------------------------------------|
|
| S +S  S S S S  S  S S +S  S S S S S S
|-0-(0)---------------------------------|
|---------1---3p=1----1-(1)---1---3p1---|
|-------2---2-------2-------2---2-----2-|
|---------------------------------------|
|---------------------------------------|
|---------------------------------------|


  G
  S +S  s S +S  S S S +S  S S S +S  S S S
|-3-(3)-3-3-(3)-3-3-3-(3)-3-3-3-(3)-3-3-3-|
|-3-(3)-3-3-(3)-3-3-3-(3)-3-3-3-(3)-3-3-3-|
|-0-(0)-0-0-(0)-0-0-0-(0)-0-0-0-(0)-0-0-0-|
|-0-(0)-0-0-(0)-0-0-0-(0)-0-0-0-(0)-0-0-0-|
|-2-(2)-2-2-(2)-2-2-2-(2)-2-2-2-(2)-2-2-2-|
|-3-(3)-3-3-(3)-3-3-3-(3)-3-3-3-(3)-3-3-3-|


  F                   G
  S +S  S S +S  S S S S S S S S S S S
|-1-(1)-1-1-(1)-1-1-1-3-3-3-3-3-3-3-3-|
|-1-(1)-1-1-(1)-1-1-1-3-3-3-3-3-3-3-3-|
|-2-(2)-2-2-(2)-2-2-2-0-0-0-0-0-0-0-0-|
|-3-(3)-3-3-(3)-3-3-3-0-0-0-0-0-0-0-0-|
|-3-(3)-3-3-(3)-3-3-3-2-2-2-2-2-2-2-2-|
|-1-(1)-1-1-(1)-1-1-1-3-3-3-3-3-3-3-3-|


 2nd Chorus
  C        A5                    E5                F5
  S S Q  E S +S  S +S  S S S S   S +S  S +S  S S S S +S  S S +S  s s s s
|------------------------------|-----------------------------------------|
|-1-1--------------------------|-----------------------------------------|
|-0-0------2-(2)-2-(2)-2-2-2-2-|-----------------------------------------|
|-2-2------2-(2)-2-(2)-2-2-2-2-|-2-(2)-2-(2)-2-2-2-3-(3)-3-3-(3)-3-3-3-3-|
|-3-3------0-(0)-0-(0)-0-0-0-0-|-2-(2)-2-(2)-2-2-2-3-(3)-3-3-(3)-3-3-3-3-|
|------------------------------|-0-(0)-0-(0)-0-0-0-1-(1)-1-1-(1)-1-1-1-1-|


  C                 A5                  E5
  S +S  s +S  S S S S +S  S S +S  S S S S
|-----------------------------------------|
|-1-(1)-1-(1)-1-1-1-----------------------|
|-0-(0)-0-(0)-0-0-0-2-(2)-2-2-(2)-2-2-2---|
|-2-(2)-2-(2)-2-2-2-2-(2)-2-2-(2)-2-2-2-2-|
|-3-(3)-3-(3)-3-3-3-0-(0)-0-0-(0)-0-0-0-2-|
|---------------------------------------0-|


                    F5
  +S  S +S  S S +S  S S +S  S S S S S S S
|-----------------------------------------|
|-----------------------------------------|
|-----------------------------------------|
|-(2)-2-(2)-2-2-(2)-3-3-(3)-3-3-3-3-3-3-3-|
|-(2)-2-(2)-2-2-(2)-3-3-(3)-3-3-3-3-3-3-3-|
|-(0)-0-(0)-0-0-(0)-1-1-(1)-1-1-1-1-1-1-1-|


  C               A5                E5              F5
  S S S S S S S S S S S S S S S S   S S S S S S S S S S S S S S S    S
|---------------------------------|-------------------------------------|
|-1-1-1-1-1-1-1-1-----------------|-------------------------------------|
|-0-0-0-0-0-0-0-0-2-2-2-2-2-2-2-2-|-------------------------------------|
|-2-2-2-2-2-2-2-2-2-2-2-2-2-2-2-2-|-2-2-2-2-2-2-2-2-3-3-3-3-3-3-3----3--|
|-3-3-3-3-3-3-3-3-0-0-0-0-0-0-0-0-|-2-2-2-2-2-2-2-2-3-3-3-3-3-3-3----3--|
|---------------------------------|-0-0-0-0-0-0-0-0-1-1-1-1-1-1-1----1--|
|
| Gtr II
| S S S S S S S S S S S S S S S S   S S S S S S S S S S S S S S S   +S
|-------------0-0-3-3-------------|-------------0-0-3-3-----------------|
|-----1-1-3-3---------1-1-3-3-1-1-|-----1-1-3-3---------1-1-3-3-1b3-(1)-|
|-0-0-----------------------------|-0-0---------------------------------|
|---------------------------------|-------------------------------------|
|---------------------------------|-------------------------------------|
|---------------------------------|-------------------------------------|


  C               A5                E5              F5
  S S S S S S S S S S S S S S S S   S S S S S S S S S S S S S S S S
|---------------------------------|---------------------------------|
|-1-1-1-1-1-1-1-1-----------------|---------------------------------|
|-0-0-0-0-0-0-0-0-2-2-2-2-2-2-2-2-|---------------------------------|
|-2-2-2-2-2-2-2-2-2-2-2-2-2-2-2-2-|-2-2-2-2-2-2-2-2-3-3-3-3-3-3-3-3-|
|-3-3-3-3-3-3-3-3-0-0-0-0-0-0-0-0-|-2-2-2-2-2-2-2-2-3-3-3-3-3-3-3-3-|
|---------------------------------|-0-0-0-0-0-0-0-0-1-1-1-1-1-1-1-1-|
|
| S S S S S S S S S S S S S S S S   S S S S S S S S S S S S S S S S
|-------------0-0-3-3-------------|-------------0-0-3-3-------------|
|-----1-1-3-3---------1-1-3-3-1-1-|-----1-1-3-3---------1-1-3-3-1-1-|
|-0-0-----------------------------|-0-0-----------------------------|
|---------------------------------|---------------------------------|
|---------------------------------|---------------------------------|
|---------------------------------|---------------------------------|


 Interlude
  F
  S S H               Q       E     H               Q       E   S S
|---------------------------------|---------------------------------|
|---------------------------------|---------------------------------|
|-2-2-----------------------------|-------------------------------x-|
|-3-3-----------------------------|-------------------------------x-|
|-3-3-----------------------------|-------------------------------x-|
|-1-1-----------------------------|-------------------------------x-|
|
| S S S S S S S S S S S S S S S S   S S S S S S S S S S S S S S S S
|-------------------------------0-|---------------------------------|
|-----1---3p1---1-----1---3p1-----|-----1---3p1---1-----1---3p1---1-|
|-2-2---2-----2---2-2---2-----2---|-2-2---2-----2---2-2---2-----2---|
|---------------------------------|---------------------------------|
|---------------------------------|---------------------------------|
|---------------------------------|---------------------------------|


  F                                      Am
  H               +Q        +E   +S  S   W
|--------------------------------------|---------------------------------|
|--------------------------------------|---------------------------------|
|-2---------------(2)-------(2)--(2)-x-|-5-------------------------------|
|-3---------------(3)-------(3)--(3)-x-|-7-------------------------------|
|-3---------------(3)-------(3)--(3)-x-|-7-------------------------------|
|-1---------------(1)-------(1)--(1)-x-|-5-------------------------------|
|
| S S S S S S S S  S  S S S  S S  S  S   S S S S S S S S S S S S S S S S
|------------------------------------0-|---------------------------------|
|-----1---3p1---1-------1----3p1-------|-----1---3p1---1-----1---3p1---1-|
|-2-2---2-----2----2--2---2-------2----|-2-2---2-----2---2-2---2-----2---|
|--------------------------------------|---------------------------------|
|--------------------------------------|---------------------------------|
|--------------------------------------|---------------------------------|


  F                                 Am
  S S S S S Q       S S S Q         S S S S S Q       S S S Q
|---------------------------------|---------------------------------|
|---------------------------------|---------------------------------|
|-2-2-2-2-2---------2---2---------|-5-5-5-5-5---------5---5---------|
|-3-3-3-3-3---------3---3---------|-7-7-7-7-7---------7---7---------|
|-3-3-3-3-3---------3---3---------|-7-7-7-7-7---------7---7---------|
|-1-1-1-1-1---------1---1---------|-5-5-5-5-5---------5---5---------|
|
| S S S S S S S S S S S S S S S S   S S S S S S S S S S S S S S S S
|-------------------------------0-|---------------------------------|
|-----1---3p1---1-----1---3p1-----|-----1---3p1---1-----1---3p1---1-|
|-2-2---2-----2---2-2---2-----2---|-2-2---2-----2---2-2---2-----2---|
|---------------------------------|---------------------------------|
|---------------------------------|---------------------------------|
|---------------------------------|---------------------------------|


  F                                 Am
  S S S S S Q       S S S Q         Q       E   +S  S S S S S S S S S
|---------------------------------|-----------------------------------|
|---------------------------------|-----------------------------------|
|-2-2-2-2-2---------2---2---------|-5-------5---(5)-5-5-5-5-5-5-5-5-5-|
|-3-3-3-3-3---------3---3---------|-7-------7---(7)-7-7-7-7-7-7-7-7-7-|
|-3-3-3-3-3---------3---3---------|-7-------7---(7)-7-7-7-7-7-7-7-7-7-|
|-1-1-1-1-1---------1---1---------|-5-------5---(5)-5-5-5-5-5-5-5-5-5-|
|
| S S S S S S S S S S S S S S S S   S S S S S S  S  S S S S S S S S S
|-------------------------------0-|-----------------------------------|
|-----1---3p1---1-----1---3p1-----|-----1---3p1-----1-----1---3p1---3-|
|-2-2---2-----2---2-2---2-----2---|-2-2---2------2----2-2---2-----2---|
|---------------------------------|-----------------------------------|
|---------------------------------|-----------------------------------|
|---------------------------------|-----------------------------------|


    F
    s +S  S S S S S s S +S  S S S S S S
||--------------------------------------|
||o-------------------------------------|
||--2-(2)-2-2-2-2-2-2-2-(2)-2-2-2-2-2-2-|
||--3-(3)-3-3-3-3-3-3-3-(3)-3-3-3-3-3-3-|
||o-3-(3)-3-3-3-3-3-3-3-(3)-3-3-3-3-3-3-|
||--1-(1)-1-1-1-1-1-1-1-(1)-1-1-1-1-1-1-|
|
|   S  S  S S S S S S S  S  S S S S S S
||----------------------------------0---|
||o----1----3---1---3----1----3---1---3-|
||--2-----2---2---2---2-----2---2-------|
||--------------------------------------|
||o-------------------------------------|
||--------------------------------------|


  Dsus2/A           Am
  S +S  S S S S S S S +S  S S S S S S   3x
|---------------------------------------||
|--------------------------------------o||
|-7-(7)-7-7-7-7-7-7-5-(5)-5-5-5-5-5-5---||
|-7-(7)-7-7-7-7-7-7-7-(7)-7-7-7-7-7-7---||
|-7-(7)-7-7-7-7-7-7-7-(7)-7-7-7-7-7-7--o||
|-5-(5)-5-5-5-5-5-5-5-(5)-5-5-5-5-5-5---||
|
| S  S  S S S S S S S  S  S S S S S S   3x
|---------------0-----------------------||
|----1----3---1---3----1----3---1---3--o||
|-2-----2---2-------2-----2---2---2-----||
|---------------------------------------||
|--------------------------------------o||
|---------------------------------------||


  F                                     Dsus2/A         Am
  S +S  S S S S S S S +S  S S S S S S   S S S S S S S S S S S S S S S S
|-------------------------------------|---------------------------------|
|-------------------------------------|---------------------------------|
|-2-(2)-2-2-2-2-2-2-2-(2)-2-2-2-2-2-2-|-7-7-7-7-7-7-7-7-5-5-5-5-5-5-5-5-|
|-3-(3)-3-3-3-3-3-3-3-(3)-3-3-3-3-3-3-|-7-7-7-7-7-7-7-7-7-7-7-7-7-7-7-7-|
|-3-(3)-3-3-3-3-3-3-3-(3)-3-3-3-3-3-3-|-7-7-7-7-7-7-7-7-7-7-7-7-7-7-7-7-|
|-1-(1)-1-1-1-1-1-1-1-(1)-1-1-1-1-1-1-|-5-5-5-5-5-5-5-5-5-5-5-5-5-5-5-5-|
|
| S  S  S S S S S S S  S  S S S S S S   S S S S S S S S S S S S S S E
|---------------------------------0---|-------------0-------0-------0---|
|----1----3---1---3----1----3---1---3-|---1---3---1---3---1---3---1-----|
|-2-----2---2---2---2-----2---2-------|-2---2---2-------2-------2-------|
|-------------------------------------|---------------------------------|
|-------------------------------------|---------------------------------|
|-------------------------------------|---------------------------------|


 Last Chorus
  C                         G5
  S S H    Q  E   H    Q  E E
|---------------|-------------|
|-1-1-----------|-------------|
|-0-0-----------|-------------|
|-2-2-----------|-----------5-|
|-3-3-----------|-----------5-|
|---------------|-----------3-|


  C                 A5                  E5
  S +S  S +S  S S S S +S  S S +S  S S S S
|-----------------------------------------|
|-1-(1)-1-(1)-1-1-1-----------------------|
|-0-(0)-0-(0)-0-0-0-2-(2)-2-2-(2)-2-2-2---|
|-2-(2)-2-(2)-2-2-2-2-(2)-2-2-(2)-2-2-2-2-|
|-3-(3)-3-(3)-3-3-3-0-(0)-0-0-(0)-0-0-0-2-|
|---------------------------------------0-|


                    F5
  S +S  S +S  S S S S S +S  S S S S S S
|---------------------------------------|
|---------------------------------------|
|---------------------------------------|
|-2-(2)-2-(2)-2-2-2-3-3-(3)-3-3-3-3-3-3-|
|-2-(2)-2-(2)-2-2-2-3-3-(3)-3-3-3-3-3-3-|
|-0-(0)-0-(0)-0-0-0-1-1-(1)-1-1-1-1-1-1-|


    C               A5                E5              F5
    S S S S S S S S S S S S S S S S   S S S S S S S S S S S S S S S S
||----------------------------------|-----------------------------------||
||o-1-1-1-1-1-1-1-1-----------------|----------------------------------o||
||--0-0-0-0-0-0-0-0-2-2-2-2-2-2-2-2-|-----------------------------------||
||--2-2-2-2-2-2-2-2-2-2-2-2-2-2-2-2-|-2-2-2-2-2-2-2-2-3-3-3-3-3-3-3-3---||
||o-3-3-3-3-3-3-3-3-0-0-0-0-0-0-0-0-|-2-2-2-2-2-2-2-2-3-3-3-3-3-3-3-3--o||
||----------------------------------|-0-0-0-0-0-0-0-0-1-1-1-1-1-1-1-1---||
|
|   Gtr II
|   S S S S S S S S S S S S S S S S   S S S S S S S S S S S S S S S S
||--------------0-0-3-3-------------|-------------0-0-3-3---------------||
||o-----1-1-3-3---------1-1-3-3-1-1-|-----1-1-3-3---------1-1-3-3-1-1--o||
||--0-0-----------------------------|-0-0-------------------------------||
||----------------------------------|-----------------------------------||
||o---------------------------------|----------------------------------o||
||----------------------------------|-----------------------------------||


  C             A5                E5                  F5
  S S S S S S S S +S  S S S S S S S   +S  S S S S S S S +S  S S S S S S S
|-----------------------------------|-------------------------------------|
|-1-1-1-1-1-1-1---------------------|-------------------------------------|
|-0-0-0-0-0-0-0-2-(2)-2-2-2-2-2-2---|-------------------------------------|
|-2-2-2-2-2-2-2-2-(2)-2-2-2-2-2-2-2-|-(2)-2-2-2-2-2-2-3-(3)-3-3-3-3-3-3-3-|
|-3-3-3-3-3-3-3-0-(0)-0-0-0-0-0-0-2-|-(2)-2-2-2-2-2-2-3-(3)-3-3-3-3-3-3-3-|
|---------------------------------0-|-(0)-0-0-0-0-0-0-1-(1)-1-1-1-1-1-1-1-|
|
| S S S S S S S S  S  S S S S S S S    S  S S S S S S S  S  S S S S S S S
|-------------0-0--3--3-------------|---------------0-0--3--3-------------|
|-----1-1-3-3-----------1-1-3-3-1-1-|-------1-1-3-3-----------1-1-3-3-1-1-|
|-0-0-------------------------------|--0--0-------------------------------|
|-----------------------------------|-------------------------------------|
|-----------------------------------|-------------------------------------|
|-----------------------------------|-------------------------------------|


  C             A5                E5                  F5            G5  A5
  S S S S S S S S +S  S S S S S S S   +S  S S S S S S S +S  S S S S S S S
|-----------------------------------|-------------------------------------|
|-1-1-1-1-1-1-1---------------------|-------------------------------------|
|-0-0-0-0-0-0-0-2-(2)-2-2-2-2-2-2---|-------------------------------------|
|-2-2-2-2-2-2-2-2-(2)-2-2-2-2-2-2-2-|-(2)-2-2-2-2-2-2-3-(3)-3-3-3-3-5-x-7-|
|-3-3-3-3-3-3-3-0-(0)-0-0-0-0-0-0-2-|-(2)-2-2-2-2-2-2-3-(3)-3-3-3-3-5-x-7-|
|---------------------------------0-|-(0)-0-0-0-0-0-0-1-(1)-1-1-1-1-3-x-5-|
|
| S S S S S S S S  S  S S S S S S S    S  S S S S S S S  S  S S S S S S S
|-------------0-0--3--3-------------|---------------0-0--3--3-------------|
|-----1-1-3-3-----------1-1-3-3-1-1-|-------1-1-3-3-----------1-1-3-3-1-1-|
|-0-0-------------------------------|--0--0-------------------------------|
|-----------------------------------|-------------------------------------|
|-----------------------------------|-------------------------------------|
|-----------------------------------|-------------------------------------|


  +S  +S  Q   H    E   W
|--------------------|------*|
|--------------------|------*|
|--------------------|------*|
|-(7)-(7)-7\---------|------*|
|-(7)-(7)-7\---------|------*|
|-(5)-(5)-5\---------|------*|


Duration Legend
---------------
W - whole; H - half; Q - quarter; E - 8th; S - 16th; T - 32nd; X - 64th; a - acciaccatura
+ - note tied to previous; . - note dotted; .. - note double dotted
Uncapitalized letters represent notes that are staccato (1/2 duration)
Irregular groupings are notated above the duration line
Duration letters will always appear directly above the note/fret number it represents the
duration for.  Duration letters with no fret number below them represent rests.  Multi-
bar rests are notated in the form Wxn, where n is the number of bars to rest for.  Low
melody durations appear below the staff

Tablature Legend
----------------
 h   - hammer-on
 p   - pull-off
 b   - bend
 pb  - pre-bend
 r   - bend release (if no number after the r, then release immediately)
 /\  - slide into or out of (from/to "nowhere")
 s   - legato slide
 S   - shift slide
  - natural harmonic
[n]  - artificial harmonic
n(n) - tapped harmonic
 ~   - vibrato
 tr  - trill
 T   - tap
 TP  - trem. picking
 PM  - palm muting
\n/  - tremolo bar dip; n = amount to dip
 \n  - tremolo bar down
 n/  - tremolo bar up
/n\  - tremolo bar inverted dip
 =   - hold bend; also acts as connecting device for hammers/pulls
 <>  - volume swell (louder/softer)
 x   - on rhythm slash represents muted slash
 o   - on rhythm slash represents single note slash

Misc Legend
-----------
 |  - bar
||  - double bar
||o - repeat start
o|| - repeat end
*|  - double bar (ending)
 :  - bar (freetime)
 $  - Segno
 &  - Coda
Tempo markers -  = BPM(8/16=s8/s16), where s8 = swing 8ths, s16 = swing 16ths


***************************************************************************************
* Generated using Power Tab Editor by Brad Larsen - http://powertab.guitarnetwork.org *
***************************************************************************************
Tap to rate this tab
 
# A B C D E F G H I J K L M N O P Q R S T U V W X Y Z