Song name
# A B C D E F G H I J K L M N O P Q R S T U V W X Y Z

Fall Out Boy - Second Emo tab

Help us improve GuitareTab! Take a short survey!
Band: Fall Out Boy
Song: Second Emo
Tuning: Standard (e,a,d,g,b,e)
Tabbed By: Daniel de Nava (St.jimmy213@hotmail.com)

Intro:

Guitar 1
E|-------------------------------------|
B|-------------------------------------|
G|-----------------------------12-11-7-|×3
D|-5--5-×-9--9-9--11--11-11-×--×--×--×-|
A|-5--5-×-9--9-9--×---×--×--×--10-9--5-|
E|-3--3-×-7--7-7--9---9--9--×----------|

E|------------------------------------------|
B|------------------------------------------|
G|-----------------------------12--11-6--7>-|
D|-5--5-×-9--9-9--11--11-11--×-×---×--×--7>-|
A|-5--5-×-9--9-9--×---×--×---×-10--9--4--5>-|
E|-3--3-×-7--7-7--9---9--9---×--------------|

Guitar 2
E|-------------------------------------|
B|-------------------------------------|
G|-----------------------------12-11-7-|×3
D|-5--5-×-9--9-9--7---7--7--×--×--×--×-|
A|-×--×-×-×--×-×--×---×--×--×--10-9--5-|
E|-3--3-×-7--7-7--5---5--5--×----------|

E|------------------------------------------------------|
B|------------------------------------------------------|
G|-----------------------------12\11/12-----------------|
D|-5--5-×-9--9-9--11--11-11--×-×-\×-/×--11-12-----------|
A|-5--5-×-9--9-9--×---×--×---×-10\9-/10-×--×--12\10\9\5-|
E|-3--3-×-7--7-7--9---9--9---×----------9--10-----------|

E|---------------|
B|---------------| (Do the Pickslides Just Before the Verse Starts)
G|----|
D|---------------|
A|---------------|
E|---------------|

Verse:

Guitar 1 (Part a)
E|--------------------------------|
B|--------------------------------|
G|-11--11-×-7-7-7--9-9--9--6-7-9--|×3
D|-×---×--×-×-×-×--×-×--×--×-×-×--|
A|-9---9--×-5-5-5--7-7--7--4-5-7--|
E|--------------------------------|

E|----------------------------------|
B|----------------------------------|
G|-11--11-×-7-7-7--9-9--9--6--6-6-6-|
D|-×---×--×-×-×-×--×-×--×--×--×-×-×-|
A|-9---9--×-5-5-5--7-7--7--4--4-4-4-|
E|----------------------------------|

Guitar 2 (Part a)
E|--------------------------------|
B|--------------------------------|
G|--------------------------------|×3
D|-9--9-×--5-5555-7--7-7-7-7-7----|
A|-9--9-×--5-5555-7--7-7-7-7-7----|
E|-7--7-×--3-3333-5--5-5-5-5-5----|

E|---------------------------------|
B|---------------------------------|
G|---------------------------------|
D|-9--9-×--5-5555-7--7-7--4--4-4-4-|
A|-9--9-×--5-5555-7--7-7--4--4-4-4-|
E|-7--7-×--3-3333-5--5-5--2--2-2-2-|

Guitar 1 (Part b)
E|------------------------------|
B|------------------------------|
G|-7--7-×--7-7-7--6--6-×--6-6-6-|×3
D|-×--×-×--×-×-×--×--×-×--×-×-×-|
A|-5--5-×--5-5-5--4--4-×--4-4-4-|
E|------------------------------|

E|------------------------------|
B|------------------------------|
G|-7--7-×--7-7-7--9--9-×--9-9-9-|
D|-×--×-×--×-×-×--×--×-×--×-×-×-|
A|-5--5-×--5-5-5--7--7-×--7-7-7-|
E|------------------------------|

Guitar 2 (Part b)
E|------------------------------|
B|------------------------------|
G|------------------------------|×3
D|-5--5-×--5-5-5--4--4-×--4-4-4-|
A|-5--5-×--5-5-5--4--4-×--4-4-4-|
E|-3--3-×--3-3-3--2--2-×--2-2-2-|

E|------------------------------|
B|------------------------------|
G|------------------------------|
D|-5--5-×--5-5-5--7--7-×--7-7-7-|
A|-5--5-×--5-5-5--7--7-×--7-7-7-|
E|-3--3-×--3-3-3--5--5-×--5-5-5-|

Chorus:

Guitar 1
E|------------------------------------------------------|
B|------------------------------------------------------|
G|-7-7-×-×-×-9-9--×--11--11-11-×-×-7--7-×-×-×-----------|
D|-7-7-×-×-×-×-×--×--×---×--×--×-×-×--×-×-×-×-7-77-7777-|
A|-5-5-×-×-×-7-7--×--9---9--9--×-×-5--5-×-×-×-5-55-5555-|
E|------------------------------------------------------|

-------------------------------------|
-------------------------------------|
-14-14-14-14-14-12-12-×-11--11-11-11-|
-×--×--×--×--×--×--×--×-×---×--×--×--|
-12-12-12-12-12-10-10-×-9---9--9--9--|
-------------------------------------|

------------------------------------------------|
------------------------------------------------|
-12-12-12-12-12-12-12--11--11-×--7--7-7-7--×-×-×|×3
-×--×--×--×--×--×--×---×---×--×--×--×-×-×--×-×-×|
-10-10-10-10-10-10-10--9---9--×--5--5-5-5--×-×-×|
------------------------------------------------|

Guitar 2
E|------------------------------------------------------------------------|
B|------------------------------------------------------------------------|
G|-7-7-×-×-×-7-7-×-7--7-7-×-7-7-×-×-×-7-77-7777---------------------------|
D|-7-7-×-×-×-7-7-×-7--7-7-×-7-7-×-×-×-7-77-7777--4-4-×-×-×-4--4-×-4--4-4--|
A|-5-5-×-×-×-5-5-×-5--5-5-×-5-5-×-×-×-5-55-5555--4-4-×-×-×-4--4-×-4--4-4--|
E|-----------------------------------------------2-2-×-×-×-2--2-×-2--2-2--|

-------------------------|
-------------------------|
-------------------------|×3
-6-6-×-×-×-6--6-×-6--6-6-|
-6-6-×-×-×-6--6-×-6--6-6-|
-3-3-×-×-×-3--3-×-3--3-3-|

Guitar 1
E|------------------------------------------------------|
B|------------------------------------------------------|
G|-7-7-×-×-×-9-9--×--11--11-11-×-×-7--7-×-×-×-----------|
D|-7-7-×-×-×-×-×--×--×---×--×--×-×-×--×-×-×-×-7-77-7777-|
A|-5-5-×-×-×-7-7--×--9---9--9--×-×-5--5-×-×-×-5-55-5555-|
E|------------------------------------------------------|

E|----------------------------------------------|
B|----------------------------------------------|
G|-7-7-×-×-×-7-7-×-7--7-7-×-7-7-×-×-×-7-77-7777-|
D|-7-7-×-×-×-7-7-×-7--7-7-×-7-7-×-×-×-7-77-7777-|
A|-5-5-×-×-×-5-5-×-5--5-5-×-5-5-×-×-×-5-55-5555-|
E|----------------------------------------------|

(The second time Guitar 2 does a Pickslide before this)


Guitar 1
E|----------------------------------------------|
B|----------------------------------------------|
G|----------------------------------------------|
D|-4-4--4--4--4-4-4-4--6-6-×-×-×-6-6-×-6--×-×-×-|
A|-4-4--4--4--4-4-4-4--6-6-×-×-×-6-6-×-6--×-×-×-|
E|-2-2--2--2--2-2-2-2--3-3-×-×-×-3-3-×-3--×-×-×-|
PM . .  .  .  . . . .

Solo:

Guitars 1 & 2
E|-15-------|
B|----15----|×7
G|-------14-| When you do it the whole 7 times, guitar 1 plays
D|----------| the top “E 15” again and let ring.
A|----------|
E|----------|

Guitar 2
E|-15-14-19-| As soon as the guitars finish the solo do this
B|----------| with guitar 2.
G|----------|
D|----------|
A|----------|
E|----------|

Outro:
Note: Guitar 2 takes the leads for outro

Guitar 1 (Part a)
E|--------------------------------------------------------------|
B|--------------------------------------------------------------|
G|--------------------------------------------------------------|×4
D|-9--9-×--5--5-5-5-7--7-×-4--4-4-4-5--5-×--5-5-5--5-5-5--4-5-7-|
A|-9--9-×--5--5-5-5-7--7-×-4--4-4-4-5--5-×--5-5-5--5-5-5--4-5-7-|
E|-7--7-×--3--3-3-3-5--5-×-2--2-2-2-3--3-×--3-3-3--3-3-3--2-3-5-|

Guitar 2 (Part a)
E|------------------------------------------------------------------|
B|------------------------------------------------------------------|
G|-11--11-×--12--11-7--7--7-×--12-11-9-7--7-×-7-7-7--7-7-7--6-7-|×4-|
D|-×---×--×--×---×--×--×--×-׬--׬--×--×-×--×-×-×-×-×--×-×-×--×-×---|
A|-9---9--×--10--9--5--5--5-×--10-9--7-5--5-×-5-5-5--5-5-5--4-5-----|
E|------------------------------------------------------------------|

Guitar 1 (Part b)
E|------------------------------|
B|------------------------------|
G|------------------------------|×4
D|-5--5-×--9-9-9--7--7-×--7-7-7-|
A|-5--5-×--9-9-9--7--7-×--7-7-7-|
E|-3--3-×--7-7-7--5--5-×--5-5-5-|

Guitar 2 (Part b)
E|--------------------------------|
B|--------------------------------|
G|-7--7-×-14--12--11-9--9-×-9-9-9-|×4
D|-×--×-×-×---×---×--×--×-×-×-×-×-|
A|-5--5-×-12--10--9--7--7-×-7-7-7-|
E|--------------------------------|

Guitar 1 (Part c)
E|----------------------------------|
B|----------------------------------|
G|----------------7>-------------7>-|
D|-5>---7>---9>---7>---5>---7>---7>-|
A|-5>---7>---9>---5>---5>---7>---5>-|
E|-3>---5>---7>--------3>---5>------|

Guitar 2 (Part c)
E|-----------------------------------------------------------------|
B|-----------------------------------------------------------------|
G|-7----------------------7---------7>---7----------------------7>-|
D|-7--------------7--5--4-7-----5-4-7>---7--------------5-4-2---7>-|
A|-5--5-5h7-7--4----------5---5-----5>---5--5-5h7-7--4--------4-5>-|
E|-----------------------------------------------------------------|

The other tab wasn’t quite right, actually way off. This is closer to reality than the
one. =P .This is also my first tab (so be nice and just because I’m 13 doesn’t mean it’s
right). I have been playing for quite a while now and decided to finally make a tab (I 
this song would have been easier to tab, since there are no vocals and also it is
awesome song from an awesome band!). Email me any mistakes, although I think it sounds 
correct...

Enjoy!

Song Structure:

Guitar 1:

Intro

Verse

Chorus

Verse Pt. b

Chorus

Verse Pt. b

	Solo

	Outro (Smoothly part a, then b, then c)

Guitar 2:

	Intro - Then Pickslide

Verse

Chorus

Verse Pt. b

Chorus - with Pickslide before pm’ing

Verse Pt. b

	Solo

	Outro (Smoothly part a, then b, then c)


Legend:

× - Dead Note

. - Palm Mute

\ - Slide Down

/ - Slide Up

h - Hammer On

> - Let Ring
Related for Second Emo tab