Song name
# A B C D E F G H I J K L M N O P Q R S T U V W X Y Z

Fall Out Boy - Sugar Were Going Down tab

Help us improve GuitareTab! Take a short survey!
Fall Out Boy - Sugar, We're Going Down
From Under the Cork Tree

this is a great song, and i wanted to make a tab according to the beat. so, here
you go. everything's in order, so read the tab the whole way through. drop d tuning.

 Key:

 / - slide up
 \ - slide down
 h - hammer-on
 p - pull-off
 . - palm-mute
 x - left hand mute
 + - harmonic
(5)- ghost note
 ~ - let it ring
 t - triplets

---------------------------------------------------------------------------------
Intro


   1 + 2 + 3 + 4 +   1 + 2 + 3 + 4 +   1 + 2 + 3 + 4 +   1 + 2 + 3 + 4 +
E|-----------------|-----------------|-----------------|-----------------|
B|-R---------------|-R---------------|-R---------------|-----------------|
G|-----E-----------|-----E-----------|-----E-----------|-----------------|
D|---------S-------|---------S-------|---------S-------|---------x-x-x-x-|
A|-------------T---|-------------T---|-------------T---|---------x-x-x-x-|
D|-----------------|-----------------|-----------------|---------x-x-x-x-|
 |
 |
 | 1 + 2 + 3 + 4 +   1 + 2 + 3 + 4 +   1 + 2 + 3 + 4 +   1 + 2 + 3 + 4 +
E|-----------------|-----------------|-----------------|-----------------|
B|-R---------------|-R---------------|-R---------------|-----------------|
G|-----E-----------|-----E-----------|-----E-----------|-----------------|
D|---------S-------|---------S-------|---------S-------|---------x-x-x-x-|
A|-------------T---|-------------T---|-------------T---|---------x-x-x-x-|
D|-----------------|-----------------|-----------------|---------x-x-x-x-|


   1 + 2 + 3 + 4 +   1 + 2 + 3 + 4 +   1 + 2 + 3 + 4 +   1 + 2 + 3 + 4 +
E|-----------------|-----------------|-----------------|-----------------|
B|-----------------|-----------------|-----------------|-----------------|
G|-----------------|-----------------|-----------------|-----------------|
D|-0-0-0-0-0-0-0-0-|-0-0-0-0-0-0-0-0-|-5-5-5-5-5-5-5-5-|-5-5-5-5-5-5-5-5-|
A|-0-0-0-0-0-0-0-0-|-0-0-0-0-0-0-0-0-|-5-5-5-5-5-5-5-5-|-5-5-5-5-5-5-5-5-|
D|-0-0-0-0-0-0-0-0-|-0-0-0-0-0-0-0-0-|-5-5-5-5-5-5-5-5-|-5-5-5-5-5-5-5-5-|
 |
 |
 | 1 + 2 + 3 + 4 +   1 + 2 + 3 + 4 +   1 + 2 + 3 + 4 +   1 + 2 + 3 + 4 +
E|-----------------|-----------------|-----------------|-----------------|
B|-----------------|-----------------|-----------------|-----------------|
G|-----------------|-----------------|-----------------|-----------------|
D|-0-0-0-0-0-0-0-0-|-0-0-0-0-0-0-0-0-|-5-5-5-5-5-5-5-5-|-5-5-5-5-5-5-5-5-|
A|-0-0-0-0-0-0-0-0-|-0-0-0-0-0-0-0-0-|-5-5-5-5-5-5-5-5-|-5-5-5-5-5-5-5-5-|
D|-0-0-0-0-0-0-0-0-|-0-0-0-0-0-0-0-0-|-5-5-5-5-5-5-5-5-|-5-5-5-5-5-5-5-5-|


   1 + 2 + 3 + 4 +   1 + 2 + 3 + 4 +   1 + 2 + 3 + 4 +   1 + 2 + 3 + 4 +
E|-----------------|-----------------|-----------------|-----------------|
B|-----------------|-----------------|-----------------|-----------------|
G|-----------------|-----------------|-----------------|-----------------|
D|-9-9-9-9-9-9-9-9-|-9-9-9-9-9-9-9-9-|-5-5-5-5-5-5-5-5-|-5-5-5-5-x-x-x-x-|
A|-9-9-9-9-9-9-9-9-|-9-9-9-9-9-9-9-9-|-5-5-5-5-5-5-5-5-|-5-5-5-5-x-x-x-x-|
D|-9-9-9-9-9-9-9-9-|-9-9-9-9-9-9-9-9-|-5-5-5-5-5-5-5-5-|-5-5-5-5-x-x-x-x-|
 |
 |
 | 1 + 2 + 3 + 4 +   1 + 2 + 3 + 4 +   1 + 2 + 3 + 4 +   1 + 2 + 3 + 4 +
E|-----------------|-----------------|-----------------|-----------------|
B|-----------------|-----------------|-----------------|-----------------|
G|-----------------|-----------------|-----------------|-----------------|
D|-9-9-9-9-9-9-9-9-|-9-9-9-9-9-9-9-9-|-5-5-5-5-5-5-5-5-|-5-5-5-5-x-x-x-x-|
A|-9-9-9-9-9-9-9-9-|-9-9-9-9-9-9-9-9-|-5-5-5-5-5-5-5-5-|-5-5-5-5-x-x-x-x-|
D|-9-9-9-9-9-9-9-9-|-9-9-9-9-9-9-9-9-|-5-5-5-5-5-5-5-5-|-5-5-5-5-x-x-x-x-|


   1 + 2 + 3 + 4 +   1 + 2 + 3 + 4 +   1 + 2 + 3 + 4 +   1 + 2 + 3 + 4 +
E|-----------------|-----------------|-----------------|-----------------|
B|-7-7-7-5-5-5-8-8-|-8-5-5-5-7-7-5-5-|-7-7-7-5-5-5-8-8-|-8-5-5-5-7-7-5-5-|
G|-7-7-7-7-7-7-7-7-|-7-7-7-7-7-7-7-7-|-7-7-7-7-7-7-7-7-|-7-7-7-7-7-7-7-7-|
D|-----------------|-----------------|-----------------|-----------------|
A|-----------------|-----------------|-----------------|-----------------|
D|-----------------|-----------------|-----------------|-----------------|
 |
 |
 | 1 + 2 + 3 + 4 +   1 + 2 + 3 + 4 +   1 + 2 + 3 + 4 +   1 + 2 + 3 + 4 +
E|-----------------|-----------------|-----------------|-----------------|
B|-----------------|-----------------|-----------------|-----------------|
G|---------7-7-7-7-|---------7-7-7-7-|---------7-7-7-7-|---------7-7-7-7-|
D|-0-0-0-0-x-x-x-x-|-0-0-0-0-x-x-x-x-|-5-5-5-5-x-x-x-x-|-5-5-5-5-x-x-x-x-|
A|-0-0-0-0-5-5-5-5-|-0-0-0-0-5-5-5-5-|-5-5-5-5-5-5-5-5-|-5-5-5-5-5-5-5-5-|
D|-0-0-0-0---------|-0-0-0-0---------|-5-5-5-5---------|-5-5-5-5---------|


   1 + 2 + 3 + 4 +   1 + 2 + 3 + 4 +   1 + 2 + 3 + 4 +   1 + 2 + 3 + 4 +
E|-----------------|-----------------|-----------------|-----------------|
B|-7-7-7-5-5-5-8-8-|-8-5-5-5-7-7-5-5-|-7~--------------|(7)--------------|
G|-7-7-7-7-7-7-7-7-|-7-7-7-7-7-7-7-7-|-7~--------------|(7)--------------|
D|-----------------|-----------------|-----------------|-----------------|
A|-----------------|-----------------|-----------------|-----------------|
D|-----------------|-----------------|-----------------|-----------------|
 |
 |
 | 1 + 2 + 3 + 4 +   1 + 2 + 3 + 4 +   1 + 2 + 3 + 4 +   1 + 2 + 3 + 4 +
E|-----------------|-----------------|-----------------|-----------------|
B|-----------------|-----------------|-----------------|-----------------|
G|--------11111111-|--------11111111-|-----------------|-----------------|
D|-9-9-9-9-x-x-x-x-|-9-9-9-9-x-x-x-x-|-5~--------------|(5)--------------|
A|-9-9-9-9-9-9-9-9-|-9-9-9-9-9-9-9-9-|-5~--------------|(5)--------------|
D|-9-9-9-9---------|-9-9-9-9---------|-5~--------------|(5)--------------|


Verse


   1 + 2 + 3 + 4 +   1 + 2 + 3 + 4 +   1 + 2 + 3 + 4 +   1 + 2 + 3 + 4 +
E|-----------------|-----------------|-----------------|-----------------|
B|-R---------------|-R---------------|-R---------------|-R---------------|
G|-----E-----------|-----E-----------|-----E-----------|-----E-----------|
D|---------S-------|---------S-------|---------S-------|---------S-------|
A|-------------T---|-------------T---|-------------T---|-------------T---|
D|-----------------|-----------------|-----------------|-----------------|
 |
 |
 | 1 + 2 + 3 + 4 +   1 + 2 + 3 + 4 +   1 + 2 + 3 + 4 +   1 + 2 + 3 + 4 +
E|-----------------|-----------------|-----------------|-----------------|
B|-R---------------|-R---------------|-R---------------|-R---------------|
G|-----E-----------|-----E-----------|-----E-----------|-----E-----------|
D|---------S-------|---------S-------|---------S-------|---------S-------|
A|-------------T---|-------------T---|-------------T---|-------------T---|
D|-----------------|-----------------|-----------------|-----------------|


   1 + 2 + 3 + 4 +   1 + 2 + 3 + 4 +   1 + 2 + 3 + 4 +   1 + 2 + 3 + 4 +
E|-----------------|-----------------|-----------------|-----------------|
B|-R---------------|-R---------------|-R---------------|-R---------------|
G|-----E-----------|-----E-----------|-----E-----------|-----E-----------|
D|---------S-------|---------S-------|---------S-------|---------S-------|
A|-------------T---|-------------T---|-------------T---|-------------T---|
D|-----------------|-----------------|-----------------|-----------------|
 |
 |
 | 1 + 2 + 3 + 4 +   1 + 2 + 3 + 4 +   1 + 2 + 3 + 4 +   1 + 2 + 3 + 4 +
E|-----------------|-----------------|-----------------|-----------------|
B|-R---------------|-R---------------|-R---------------|-R---------------|
G|-----E-----------|-----E-----------|-----E-----------|-----E-----------|
D|---------S-------|---------S-------|---------S-------|---------S-------|
A|-------------T---|-------------T---|-------------T---|-------------T---|
D|-----------------|-----------------|-----------------|-----------------|


   1 + 2 + 3 + 4 +   1 + 2 + 3 + 4 +   1 + 2 + 3 + 4 +   1 + 2 + 3 + 4 +
E|-----------------|-----------------|-----------------|-----------------|
B|-----------------|-----------------|-----------------|-----------------|
G|-----------------|-----------------|-----------------|-----------------|
D|-----7---7h9p7---|-----7h9p7-------|-----7---7h9p7---|-----7h9p7-------|
A|-5---------------|-7h9---------7---|-5---------------|-7h9---------7---|
D|-----------------|-----------------|-----------------|-----------------|
 | .                                   .
 |
 | 1 + 2 + 3 + 4 +   1 + 2 + 3 + 4 +   1 + 2 + 3 + 4 +   1 + 2 + 3 + 4 +
E|-----------------|-----------------|-----------------|-----------------|
B|-----------------|-----------------|-----------------|-----------------|
G|-----------------|-----------------|-----------------|-----------------|
D|-----------------|-----------------|-----------------|-----------------|
A|-5---5---5---5---|-7---7---7---7---|-5---5---5---5---|-7---7---7---7---|
D|-----------------|-----------------|-----------------|-----------------|


   1 + 2 + 3 + 4 +   1 + 2 + 3 + 4 +   1 + 2 + 3 + 4 +   1 + 2 + 3 + 4 +
E|-----------------|-----------------|-----------------|-----------------|
B|-----------------|-----------------|-----------------|-----------------|
G|-----------------|-----------------|-----------------|-----------------|
D|-----7---7h9p7---|-----7h9p7-------|-----7---7h9p7---|-----7h9p7-------|
A|-5---------------|-7h9---------7---|-5---------------|-7h9---------7---|
D|-----------------|-----------------|-----------------|-----------------|
 | .                                   .
 |
 | 1 + 2 + 3 + 4 +   1 + 2 + 3 + 4 +   1 + 2 + 3 + 4 +   1 + 2 + 3 + 4 +
E|-----------------|-----------------|-----------------|-----------------|
B|-----------------|-----------------|-----------------|-----------------|
G|-----------------|-----------------|-----------------|-----------------|
D|-----------------|-----------------|-----------------|-----------------|
A|-5---5---5---5---|-7---7---7---7---|-5---5---5---5---|-7---7---7---7---|
D|-----------------|-----------------|-----------------|-----------------|


Pre-Chorus


   1 + 2 + 3 + 4 +   1 + 2 + 3 + 4 +   1 + 2 + 3 + 4 +   1 + 2 + 3 + 4 +
E|-----------------|-----------------|-----------------|-----------------|
B|-----------------|-----------------|-----------------|-----------------|
G|-----------------|-----------------|-----------------|-----------------|
D|-4-4-4-4-4-4-5-5-|-5-5-5-5-5-5-5-5-|-7-7-7-7-7-7-9-9-|-9-9-9-9-9-9-9-9-|
A|-4-4-4-4-4-4-5-5-|-5-5-5-5-5-5-5-5-|-7-7-7-7-7-7-9-9-|-9-9-9-9-9-9-9-9-|
D|-4-4-4-4-4-4-5-5-|-5-5-5-5-5-5-5-5-|-7-7-7-7-7-7-9-9-|-9-9-9-9-9-9-9-9-|
 | . . . . . . . .   . . . . . . . .   . . . . . . . .   . . . . . . . . 
 |
 | 1 + 2 + 3 + 4 +   1 + 2 + 3 + 4 +   1 + 2 + 3 + 4 +   1 + 2 + 3 + 4 +
E|-----------------|-----------------|-----------------|-----------------|
B|-----------------|-----------------|-----------------|-----------------|
G|-----------------|-----------------|-----------------|-----------------|
D|-4-4-4-4-4-4-5-5-|-5-5-5-5-5-5-5-5-|-7-7-7-7-7-7-9-9-|-9-9-9-9-9-9-9-9-|
A|-4-4-4-4-4-4-5-5-|-5-5-5-5-5-5-5-5-|-7-7-7-7-7-7-9-9-|-9-9-9-9-9-9-9-9-|
D|-4-4-4-4-4-4-5-5-|-5-5-5-5-5-5-5-5-|-7-7-7-7-7-7-9-9-|-9-9-9-9-9-9-9-9-|
   . . . . . . . .   . . . . . . . .   . . . . . . . .   . . . . . . . .


   1 + 2 + 3 + 4 +   1 + 2 + 3 + 4 +   1 + 2 + 3 + 4 +   1 + 2 + 3 + 4 +
E|-----------------|-----------------|-----------------|-----------------|
B|-----------------|-----------------|-----------------|-----------------|
G|-----------------|-----------------|-----------------|-----------------|
D|101010101010-9-9-|-9-9-9-9-9-9-9-9-|-5-5-5-5-5-5-5-5-|-5-5-5-5-x-x-x-x-|
A|101010101010-9-9-|-9-9-9-9-9-9-9-9-|-5-5-5-5-5-5-5-5-|-5-5-5-5-x-x-x-x-|
D|101010101010-9-9-|-9-9-9-9-9-9-9-9-|-5-5-5-5-5-5-5-5-|-5-5-5-5-x-x-x-x-|
 | . . . . . . . .   . . . . . . . .   . . . . . . . . 
 |
 | 1 + 2 + 3 + 4 +   1 + 2 + 3 + 4 +   1 + 2 + 3 + 4 +   1 + 2 + 3 + 4 +
E|-----------------|-----------------|-----------------|-----------------|
B|-----------------|-----------------|-----------------|-----------------|
G|-----------------|-----------------|-----------------|-----------------|
D|101010101010-9-9-|-9-9-9-9-9-9-9-9-|-5-5-5-5-5-5-5-5-|-5-5-5-5-x-x-x-x-|
A|101010101010-9-9-|-9-9-9-9-9-9-9-9-|-5-5-5-5-5-5-5-5-|-5-5-5-5-x-x-x-x-|
D|101010101010-9-9-|-9-9-9-9-9-9-9-9-|-5-5-5-5-5-5-5-5-|-5-5-5-5-x-x-x-x-|
   . . . . . . . .   . . . . . . . .   . . . . . . . .


Chorus


   1 + 2 + 3 + 4 +   1 + 2 + 3 + 4 +   1 + 2 + 3 + 4 +   1 + 2 + 3 + 4 +
E|-----------------|-----------------|-----------------|-----------------|
B|-----------------|-----------------|-----------------|-----------------|
G|-----------------|-----------------|-----------------|-----------------|
D|-0-0-0-0-0-0-0-0-|-0-0-0-0-0-0-0-0-|-5-5-5-5-5-5-5-5-|-5-5-5-5-5-5-5-5-|
A|-0-0-0-0-0-0-0-0-|-0-0-0-0-0-0-0-0-|-5-5-5-5-5-5-5-5-|-5-5-5-5-5-5-5-5-|
D|-0-0-0-0-0-0-0-0-|-0-0-0-0-0-0-0-0-|-5-5-5-5-5-5-5-5-|-5-5-5-5-5-5-5-5-|
 |
 |
 | 1 + 2 + 3 + 4 +   1 + 2 + 3 + 4 +   1 + 2 + 3 + 4 +   1 + 2 + 3 + 4 +
E|-----------------|-----------------|-----------------|-----------------|
B|-----------------|-----------------|-----------------|-----------------|
G|-----------------|-----------------|-----------------|-----------------|
D|-0-0-0-0-0-0-0-0-|-0-0-0-0-0-0-0-0-|-5-5-5-5-5-5-5-5-|-5-5-5-5-5-5-5-5-|
A|-0-0-0-0-0-0-0-0-|-0-0-0-0-0-0-0-0-|-5-5-5-5-5-5-5-5-|-5-5-5-5-5-5-5-5-|
D|-0-0-0-0-0-0-0-0-|-0-0-0-0-0-0-0-0-|-5-5-5-5-5-5-5-5-|-5-5-5-5-5-5-5-5-|


   1 + 2 + 3 + 4 +   1 + 2 + 3 + 4 +   1 + 2 + 3 + 4 +   1 + 2 + 3 + 4 +
E|-----------------|-----------------|-----------------|-----------------|
B|-----------------|-----------------|-----------------|-----------------|
G|-----------------|-----------------|-----------------|-----------------|
D|-9-9-9-9-9-9-9-9-|-9-9-9-9-9-9-9-9-|-5-5-5-5-5-5-5-5-|-5-5-5-5-x-x-x-x-|
A|-9-9-9-9-9-9-9-9-|-9-9-9-9-9-9-9-9-|-5-5-5-5-5-5-5-5-|-5-5-5-5-x-x-x-x-|
D|-9-9-9-9-9-9-9-9-|-9-9-9-9-9-9-9-9-|-5-5-5-5-5-5-5-5-|-5-5-5-5-x-x-x-x-|
 |
 |
 | 1 + 2 + 3 + 4 +   1 + 2 + 3 + 4 +   1 + 2 + 3 + 4 +   1 + 2 + 3 + 4 +
E|-----------------|-----------------|-----------------|-----------------|
B|-----------------|-----------------|-----------------|-----------------|
G|-----------------|-----------------|-----------------|-----------------|
D|-9-9-9-9-9-9-9-9-|-9-9-9-9-9-9-9-9-|-5-5-5-5-5-5-5-5-|-5-5-5-5-x-x-x-x-|
A|-9-9-9-9-9-9-9-9-|-9-9-9-9-9-9-9-9-|-5-5-5-5-5-5-5-5-|-5-5-5-5-x-x-x-x-|
D|-9-9-9-9-9-9-9-9-|-9-9-9-9-9-9-9-9-|-5-5-5-5-5-5-5-5-|-5-5-5-5-x-x-x-x-|


   1 + 2 + 3 + 4 +   1 + 2 + 3 + 4 +   1 + 2 + 3 + 4 +   1 + 2 + 3 + 4 +
E|-----------------|-----------------|-----------------|-----------------|
B|-----------------|-----------------|-----------------|-----------------|
G|---------7-7-7-7-|---------7-7-7-7-|---------7-7-7-7-|---------7-7-7-7-|
D|-0-0-0-0-x-x-x-x-|-0-0-0-0-x-x-x-x-|-5-5-5-5-x-x-x-x-|-5-5-5-5-x-x-x-x-|
A|-0-0-0-0-5-5-5-5-|-0-0-0-0-5-5-5-5-|-5-5-5-5-5-5-5-5-|-5-5-5-5-5-5-5-5-|
D|-0-0-0-0---------|-0-0-0-0---------|-5-5-5-5---------|-5-5-5-5---------|
 |
 |
 | 1 + 2 + 3 + 4 +   1 + 2 + 3 + 4 +   1 + 2 + 3 + 4 +   1 + 2 + 3 + 4 +
E|-----------------|-----------------|-----------------|-----------------|
B|-----------------|-----------------|-----------------|-----------------|
G|---------7-7-7-7-|---------7-7-7-7-|---------7-7-7-7-|---------7-7-7-7-|
D|-0-0-0-0-x-x-x-x-|-0-0-0-0-x-x-x-x-|-5-5-5-5-x-x-x-x-|-5-5-5-5-x-x-x-x-|
A|-0-0-0-0-5-5-5-5-|-0-0-0-0-5-5-5-5-|-5-5-5-5-5-5-5-5-|-5-5-5-5-5-5-5-5-|
D|-0-0-0-0---------|-0-0-0-0---------|-5-5-5-5---------|-5-5-5-5---------|


   1 + 2 + 3 + 4 +   1 + 2 + 3 + 4 +   1 + 2 + 3 + 4 +   1 + 2 + 3 + 4 +
E|-----------------|-----------------|-----------------|-----------------|
B|-----------------|-----------------|-----------------|-----------------|
G|--------11111111-|--------11111111-|---------7-7-7-7-|---------7-7-7-7-|
D|-9-9-9-9-x-x-x-x-|-9-9-9-9-x-x-x-x-|-5-5-5-5-x-x-x-x-|-5-5-5-5-x-x-x-x-|
A|-9-9-9-9-9-9-9-9-|-9-9-9-9-9-9-9-9-|-5-5-5-5-5-5-5-5-|-5-5-5-5-5-5-5-5-|
D|-9-9-9-9---------|-9-9-9-9---------|-5-5-5-5---------|-5-5-5-5---------|
 |
 |
 | 1 + 2 + 3 + 4 +   1 + 2 + 3 + 4 +   1 + 2 + 3 + 4 +   1 + 2 + 3 + 4 +
E|-----------------|-----------------|-----------------|-----------------|
B|-----------------|-----------------|-----------------|-----------------|
G|--------11111111-|--------11111111-|---------7-7-7-7-|---------7-7-7-7-|
D|-9-9-9-9-x-x-x-x-|-9-9-9-9-x-x-x-x-|-5-5-5-5-x-x-x-x-|-5-5-5-5-x-x-x-x-|
A|-9-9-9-9-9-9-9-9-|-9-9-9-9-9-9-9-9-|-5-5-5-5-5-5-5-5-|-5-5-5-5-5-5-5-5-|
D|-9-9-9-9---------|-9-9-9-9---------|-5-5-5-5---------|-5-5-5-5---------|


Post-Chorus


   1 + 2 + 3 + 4 +   1 + 2 + 3 + 4 +   1 + 2 + 3 + 4 +   1 + 2 + 3 + 4 +
E|-----------------|-----------------|-----------------|-----------------|
B|-----------------|-----------------|-----------------|-----------------|
G|---------------tt|t----------------|---------------tt|t-ttt------------|
D|-4-4-4-4-4-4-4-44|5-5-5-5-5-5-5~---|-7-7-7-7-7-7-7-99|9-999-9-9-9-9~---|
A|-4-4-4-4-4-4-4-44|5-5-5-5-5-5-5~---|-7-7-7-7-7-7-7-99|9-999-9-9-9-9~---|
D|-4-4-4-4-4-4-4-44|5-5-5-5-5-5-5~---|-7-7-7-7-7-7-7-99|9-999-9-9-9-9~---|
 | . . . .   . . .. . . . .   .        . . . .   . . .. . ... .   . 
 |
 | 1 + 2 + 3 + 4 +   1 + 2 + 3 + 4 +   1 + 2 + 3 + 4 +   1 + 2 + 3 + 4 +
E|-----------------|-----------------|-----------------|-----------------|
B|-----------------|-----------------|-----------------|-----------------|
G|---------------tt|t----------------|---------------tt|t-ttt------------|
D|-4-4-4-4-4-4-4-44|5-5-5-5-5-5-5~---|-7-7-7-7-7-7-7-99|9-999-9-9-9-9~---|
A|-4-4-4-4-4-4-4-44|5-5-5-5-5-5-5~---|-7-7-7-7-7-7-7-99|9-999-9-9-9-9~---|
D|-4-4-4-4-4-4-4-44|5-5-5-5-5-5-5~---|-7-7-7-7-7-7-7-99|9-999-9-9-9-9~---|
   . . . .   . . .. . . . .   .        . . . .   . . .. . ... .   . 


   1 + 2 + 3 + 4 +   1 + 2 + 3 + 4 +   1 + 2 + 3 + 4 +   1 + 2 + 3 + 4 +
E|-----------------|-----------------|-----------------|-----------------|
B|-----------------|-----------------|-----------------|-----------------|
G|---------------tt|t----------------|-------------7-7-|-7-7-7-7-7-7-7-7-|
D|10101010101010-99|9--9-9-9-9-9-9-\-|-5-5-5-5-5-5-5-5-|-5-5-5-5-5-5-5-5-|
A|10101010101010-99|9--9-9-9-9-9-9-\-|-5-5-5-5-5-5-5-5-|-5-5-5-5-5-5-5-5-|
D|10101010101010-99|9--9-9-9-9-9-9-\-|-5-5-5-5-5-5-5-5-|-5-5-5-5-5-5-5-5-|
 | . . . .   . . .. .  . . .   .
 |
 | 1 + 2 + 3 + 4 +   1 + 2 + 3 + 4 +   1 + 2 + 3 + 4 +   1 + 2 + 3 + 4 +
E|-----------------|-----------------|-----------------|-----------------|
B|-----------------|-----------------|-----------------|-----------------|
G|---------------tt|t----------------|-------------7-7-|-7-7-7-7-7-7-7-7-|
D|10101010101010-99|9--9-9-9-9-9-9-\-|-5-5-5-5-5-5-5-5-|-5-5-5-5-5-5-5-5-|
A|10101010101010-99|9--9-9-9-9-9-9-\-|-5-5-5-5-5-5-5-5-|-5-5-5-5-5-5-5-5-|
D|10101010101010-99|9--9-9-9-9-9-9-\-|-5-5-5-5-5-5-5-5-|-5-5-5-5-5-5-5-5-|
   . . . .   . . .. .  . . .   .


Verse


   1 + 2 + 3 + 4 +   1 + 2 + 3 + 4 +   1 + 2 + 3 + 4 +   1 + 2 + 3 + 4 +
E|-----------------|-----------------|-----------------|-----------------|
B|-----------------|-----------------|-----------------|-----------------|
G|-----------------|-----------------|-----------------|-----------------|
D|-7-7-7-7-7-7-7-7-|-----------------|-----------------|-----------------|
A|-5-5-5-5-5-5-5-5-|-5-5-5-5-5-5-5-5-|-9-9-9-9-9-9-9-9-|-5-5-5-5-5-5-5-5-|
D|-----------------|-5-5-5-5-5-5-5-5-|-9-9-9-9-9-9-9-9-|-5-5-5-5-5-5-5-5-|
 | . . . . . . . .   . . . . . . . .   . . . . . . . .   . . . . . . . .
 |
 | 1 + 2 + 3 + 4 +   1 + 2 + 3 + 4 +   1 + 2 + 3 + 4 +   1 + 2 + 3 + 4 +
E|-----------------|-----------------|-----------------|-----------------|
B|-----------------|-----------------|-----------------|-----------------|
G|-----------------|-----------------|-----------------|-----------------|
D|-7-7-7-7-7-7-7-7-|-----------------|-----------------|-----------------|
A|-5-5-5-5-5-5-5-5-|-5-5-5-5-5-5-5-5-|-9-9-9-9-9-9-9-9-|-5-5-5-5-5-5-5-5-|
D|-----------------|-5-5-5-5-5-5-5-5-|-9-9-9-9-9-9-9-9-|-5-5-5-5-5-5-5-5-|
   . . . . . . . .   . . . . . . . .   . . . . . . . .   . . . . . . . .


   1 + 2 + 3 + 4 +   1 + 2 + 3 + 4 +   1 + 2 + 3 + 4 +   1 + 2 + 3 + 4 +
E|-----------------|-----------------|-----------------|-----------------|
B|-----------------|-----------------|-----------------|-----------------|
G|-----------------|-----------------|-----------------|-------7-7-7-7-7-|
D|-7-7-7-7-7-7-7-7-|-----------------|-----------------|-------x-x-x-x-x-|
A|-5-5-5-5-5-5-5-5-|-5-5-5-5-5-5-5-5-|-9-9-9-9-9-9-9-9-|-5-5-5-5-5-5-5-5-|
D|-----------------|-5-5-5-5-5-5-5-5-|-9-9-9-9-9-9-9-9-|-5-5-5-----------|
 | . . . . . . . .   . . . . . . . .   . . . . . . . .   . . .
 |
 | 1 + 2 + 3 + 4 +   1 + 2 + 3 + 4 +   1 + 2 + 3 + 4 +   1 + 2 + 3 + 4 +
E|-----------------|-----------------|-----------------|-----------------|
B|-----------------|-----------------|-----------------|-----------------|
G|-----------------|-----------------|-----------------|-----------------|
D|-7-7-7-7-7-7-7-7-|-----------------|-----------------|-----------------|
A|-5-5-5-5-5-5-5-5-|-5-5-5-5-5-5-5-5-|-9-9-9-9-9-9-9-9-|-5-5-5-5-5-5-5-5-|
D|-----------------|-5-5-5-5-5-5-5-5-|-9-9-9-9-9-9-9-9-|-5-5-5-5-5-5-5-5-|
   . . . . . . . .   . . . . . . . .   . . . . . . . .   . . . . . . . .


   1 + 2 + 3 + 4 +   1 + 2 + 3 + 4 +   1 + 2 + 3 + 4 +   1 + 2 + 3 + 4 +
E|-----------------|-----------------|-----------------|-----------------|
B|-------------7---|-7---7---7---7---|-------------7---|-7---7---7---7---|
G|-7-7---7-7---7---|-7---7---7---7---|-7-7---7-7---7---|-7---7---7---7---|
D|-x-x---x-x---x---|-x---x---x---x---|-x-x---x-x---x---|-x---x---x---x---|
A|-5-5---5-5---5---|-7---7---7---7---|-5-5---5-5---5---|-7---7---7---7---|
D|-----------------|-----------------|-----------------|-----------------|
 |
 |
 | 1 + 2 + 3 + 4 +   1 + 2 + 3 + 4 +   1 + 2 + 3 + 4 +   1 + 2 + 3 + 4 +
E|-----------------|-----------------|-----------------|-----------------|
B|-----------------|-----------------|-----------------|-----------------|
G|-----------------|-----------------|-----------------|-----------------|
D|-----------------|-----------------|-----------------|-----------------|
A|-5---5---5---5---|-7---7---7---7---|-5---5---5---5---|-7---7---7---7---|
D|-----------------|-----------------|-----------------|-----------------|


   1 + 2 + 3 + 4 +   1 + 2 + 3 + 4 +   1 + 2 + 3 + 4 +   1 + 2 + 3 + 4 +
E|-----------------|-----------------|-----------------|-----------------|
B|-------------7---|-7---7---7---7---|-------------7---|-7---7---7---7---|
G|-7-7---7-7---7---|-7---7---7---7---|-7-7---7-7---7---|-7---7---7---7---|
D|-x-x---x-x---x---|-x---x---x---x---|-x-x---x-x---x---|-x---x---x---x---|
A|-5-5---5-5---5---|-7---7---7---7---|-5-5---5-5---5---|-7---7---7---7---|
D|-----------------|-----------------|-----------------|-----------------|
 |
 |
 | 1 + 2 + 3 + 4 +   1 + 2 + 3 + 4 +   1 + 2 + 3 + 4 +   1 + 2 + 3 + 4 +
E|-----------------|-----------------|-----------------|-----------------|
B|-----------------|-----------------|-----------------|-----------------|
G|-----------------|-----------------|-----------------|-----------------|
D|-----------------|-----------------|-----------------|-----------------|
A|-5---5---5---5---|-7---7---7---7---|-5---5---5---5---|-7---7---7---7---|
D|-----------------|-----------------|-----------------|-----------------|


Pre-Chorus


   1 + 2 + 3 + 4 +   1 + 2 + 3 + 4 +   1 + 2 + 3 + 4 +   1 + 2 + 3 + 4 +
E|-----------------|-----------------|-----------------|-----------------|
B|-----------------|-----------------|-----------------|-----------------|
G|-----------------|-----------------|-----------------|-----------------|
D|-4-4-4-4-4-4-5-5-|-5-5-5-5-5-5-5-5-|-7-7-7-7-7-7-9-9-|-9-9-9-9-9-9-9-9-|
A|-4-4-4-4-4-4-5-5-|-5-5-5-5-5-5-5-5-|-7-7-7-7-7-7-9-9-|-9-9-9-9-9-9-9-9-|
D|-4-4-4-4-4-4-5-5-|-5-5-5-5-5-5-5-5-|-7-7-7-7-7-7-9-9-|-9-9-9-9-9-9-9-9-|
 | . . . . . . . .   . . . . . . . .   . . . . . . . .   . . . . . . . . 
 |
 | 1 + 2 + 3 + 4 +   1 + 2 + 3 + 4 +   1 + 2 + 3 + 4 +   1 + 2 + 3 + 4 +
E|-----------------|-----------------|-----------------|-----------------|
B|-----------------|-----------------|-----------------|-----------------|
G|-----------------|-----------------|-----------------|-----------------|
D|-4-4-4-4-4-4-5-5-|-5-5-5-5-5-5-5-5-|-7-7-7-7-7-7-9-9-|-9-9-9-9-9-9-9-9-|
A|-4-4-4-4-4-4-5-5-|-5-5-5-5-5-5-5-5-|-7-7-7-7-7-7-9-9-|-9-9-9-9-9-9-9-9-|
D|-4-4-4-4-4-4-5-5-|-5-5-5-5-5-5-5-5-|-7-7-7-7-7-7-9-9-|-9-9-9-9-9-9-9-9-|
   . . . . . . . .   . . . . . . . .   . . . . . . . .   . . . . . . . .


   1 + 2 + 3 + 4 +   1 + 2 + 3 + 4 +   1 + 2 + 3 + 4 +   1 + 2 + 3 + 4 +
E|-----------------|-----------------|-----------------|-----------------|
B|-----------------|-----------------|-----------------|-----------------|
G|-----------------|-----------------|-----------------|-----------------|
D|101010101010-9-9-|-9-9-9-9-9-9-9-9-|-5-5-5-5-5-5-5-5-|-5-5-5-5-5\------|
A|101010101010-9-9-|-9-9-9-9-9-9-9-9-|-5-5-5-5-5-5-5-5-|-5-5-5-5-5\------|
D|101010101010-9-9-|-9-9-9-9-9-9-9-9-|-5-5-5-5-5-5-5-5-|-5-5-5-5-5\------|
 | . . . . . . . .   . . . . . . . .
 |
 | 1 + 2 + 3 + 4 +   1 + 2 + 3 + 4 +   1 + 2 + 3 + 4 +   1 + 2 + 3 + 4 +
E|-----------------|-----------------|-----------------|-----------------|
B|-----------------|-----------------|-----------------|-----------------|
G|-----------------|-----------------|-----------------|-----------------|
D|101010101010-9-9-|-9-9-9-9-9-9-9-9-|-5-5-5-5-5-5-5-5-|-5-5-5-5-5\------|
A|101010101010-9-9-|-9-9-9-9-9-9-9-9-|-5-5-5-5-5-5-5-5-|-5-5-5-5-5\------|
D|101010101010-9-9-|-9-9-9-9-9-9-9-9-|-5-5-5-5-5-5-5-5-|-5-5-5-5-5\------|
   . . . . . . . .   . . . . . . . .


Chorus


   1 + 2 + 3 + 4 +   1 + 2 + 3 + 4 +   1 + 2 + 3 + 4 +   1 + 2 + 3 + 4 +
E|-----------------|-----------------|-----------------|-----------------|
B|-----------------|-----------------|-----------------|-----------------|
G|-----------------|-----------------|-----------------|-----------------|
D|-0-0-0-0-0-0-0-0-|-0-0-0-0-0-0-0-0-|-5-5-5-5-5-5-5-5-|-5-5-5-5-5-5-5-5-|
A|-0-0-0-0-0-0-0-0-|-0-0-0-0-0-0-0-0-|-5-5-5-5-5-5-5-5-|-5-5-5-5-5-5-5-5-|
D|-0-0-0-0-0-0-0-0-|-0-0-0-0-0-0-0-0-|-5-5-5-5-5-5-5-5-|-5-5-5-5-5-5-5-5-|
 |
 |
 | 1 + 2 + 3 + 4 +   1 + 2 + 3 + 4 +   1 + 2 + 3 + 4 +   1 + 2 + 3 + 4 +
E|-----------------|-----------------|-----------------|-----------------|
B|-----------------|-----------------|-----------------|-----------------|
G|-----------------|-----------------|-----------------|-----------------|
D|-0-0-0-0-0-0-0-0-|-0-0-0-0-0-0-0-0-|-5-5-5-5-5-5-5-5-|-5-5-5-5-5-5-5-5-|
A|-0-0-0-0-0-0-0-0-|-0-0-0-0-0-0-0-0-|-5-5-5-5-5-5-5-5-|-5-5-5-5-5-5-5-5-|
D|-0-0-0-0-0-0-0-0-|-0-0-0-0-0-0-0-0-|-5-5-5-5-5-5-5-5-|-5-5-5-5-5-5-5-5-|


   1 + 2 + 3 + 4 +   1 + 2 + 3 + 4 +   1 + 2 + 3 + 4 +   1 + 2 + 3 + 4 +
E|-----------------|-----------------|-----------------|-----------------|
B|-----------------|-----------------|-----------------|-----------------|
G|-----------------|-----------------|-----------------|-----------------|
D|-9-9-9-9-9-9-9-9-|-9-9-9-9-9-9-9-9-|-5-5-5-5-5-5-5-5-|-5-5-5-5-x-x-x-x-|
A|-9-9-9-9-9-9-9-9-|-9-9-9-9-9-9-9-9-|-5-5-5-5-5-5-5-5-|-5-5-5-5-x-x-x-x-|
D|-9-9-9-9-9-9-9-9-|-9-9-9-9-9-9-9-9-|-5-5-5-5-5-5-5-5-|-5-5-5-5-x-x-x-x-|
 |
 |
 | 1 + 2 + 3 + 4 +   1 + 2 + 3 + 4 +   1 + 2 + 3 + 4 +   1 + 2 + 3 + 4 +
E|-----------------|-----------------|-----------------|-----------------|
B|-----------------|-----------------|-----------------|-----------------|
G|-----------------|-----------------|-----------------|-----------------|
D|-9-9-9-9-9-9-9-9-|-9-9-9-9-9-9-9-9-|-5-5-5-5-5-5-5-5-|-5-5-5-5-x-x-x-x-|
A|-9-9-9-9-9-9-9-9-|-9-9-9-9-9-9-9-9-|-5-5-5-5-5-5-5-5-|-5-5-5-5-x-x-x-x-|
D|-9-9-9-9-9-9-9-9-|-9-9-9-9-9-9-9-9-|-5-5-5-5-5-5-5-5-|-5-5-5-5-x-x-x-x-|


   1 + 2 + 3 + 4 +   1 + 2 + 3 + 4 +   1 + 2 + 3 + 4 +   1 + 2 + 3 + 4 +
E|-----------------|-----------------|-----------------|-----------------|
B|-7-7-7-5-5-5-8-8-|-8-5-5-5-7-7-5-5-|-7-7-7-5-5-5-8-8-|-8-5-5-5-7-7-5-5-|
G|-7-7-7-7-7-7-7-7-|-7-7-7-7-7-7-7-7-|-7-7-7-7-7-7-7-7-|-7-7-7-7-7-7-7-7-|
D|-----------------|-----------------|-----------------|-----------------|
A|-----------------|-----------------|-----------------|-----------------|
D|-----------------|-----------------|-----------------|-----------------|
 |
 |
 | 1 + 2 + 3 + 4 +   1 + 2 + 3 + 4 +   1 + 2 + 3 + 4 +   1 + 2 + 3 + 4 +
E|-----------------|-----------------|-----------------|-----------------|
B|-----------------|-----------------|-----------------|-----------------|
G|---------7-7-7-7-|---------7-7-7-7-|---------7-7-7-7-|---------7-7-7-7-|
D|-0-0-0-0-x-x-x-x-|-0-0-0-0-x-x-x-x-|-5-5-5-5-x-x-x-x-|-5-5-5-5-x-x-x-x-|
A|-0-0-0-0-5-5-5-5-|-0-0-0-0-5-5-5-5-|-5-5-5-5-5-5-5-5-|-5-5-5-5-5-5-5-5-|
D|-0-0-0-0---------|-0-0-0-0---------|-5-5-5-5---------|-5-5-5-5---------|


   1 + 2 + 3 + 4 +   1 + 2 + 3 + 4 +   1 + 2 + 3 + 4 +   1 + 2 + 3 + 4 +
E|-----------------|-----------------|-----------------|-----------------|
B|-7-7-7-5-5-5-8-8-|-8-5-5-5-7-7-5-5-|-7-7-7-5-5-5-8-8-|-8-5-5-5-7-7-5-5-|
G|-7-7-7-7-7-7-7-7-|-7-7-7-7-7-7-7-7-|-7-7-7-7-7-7-7-7-|-7-7-7-7-7-7-7-7-|
D|-----------------|-----------------|-----------------|-----------------|
A|-----------------|-----------------|-----------------|-----------------|
D|-----------------|-----------------|-----------------|-----------------|
 |
 |
 | 1 + 2 + 3 + 4 +   1 + 2 + 3 + 4 +   1 + 2 + 3 + 4 +   1 + 2 + 3 + 4 +
E|-----------------|-----------------|-----------------|-----------------|
B|-----------------|-----------------|-----------------|-----------------|
G|--------11111111-|--------11111111-|---------7-7-7-7-|---------7-7-7-7-|
D|-9-9-9-9-x-x-x-x-|-9-9-9-9-x-x-x-x-|-5-5-5-5-x-x-x-x-|-5-5-5-5-x-x-x-x-|
A|-9-9-9-9-9-9-9-9-|-9-9-9-9-9-9-9-9-|-5-5-5-5-5-5-5-5-|-5-5-5-5-5-5-5-5-|
D|-9-9-9-9---------|-9-9-9-9---------|-5-5-5-5---------|-5-5-5-5---------|


Bridge


   1 + 2 + 3 + 4 +
E|-----------------|
B|-----------------|
G|-----------------|
D|-2-0---0---0-0~--|
A|-2-0---0---0-0~--|
D|-2-0---0---0-0~--|
 |   .   .   .
 |
 | 1 + 2 + 3 + 4 + 
E|-----------------|
B|-----------------|
G|-----------------|
D|-2-0---0---0-0~--|
A|-2-0---0---0-0~--|
D|-2-0---0---0-0~--|
     .   .   . 


   1 + 2 + 3 + 4 +   1 + 2 + 3 + 4 +   1 + 2 + 3 + 4 +   1 + 2 + 3 + 4 +
E|-----------------|-----------------|-----------------|-----------------|
B|-----------------|-----------------|-----------------|-----------------|
G|-----------------|-----------------|-----------------|-----------------|
D|(0)--------------|(0)--------------|(0)--------------|(0)--------------|
A|(0)--------------|(0)--------------|(0)--------------|(0)--------------|
D|(0)--------------|(0)--------------|(0)--------------|(0)--------------|
 |
 |
 | 1 + 2 + 3 + 4 +   1 + 2 + 3 + 4 +   1 + 2 + 3 + 4 +   1 + 2 + 3 + 4 +
E|-----------------|-----------------|-----------------|-----------------|
B|-----------------|-----------------|-----------------|-----------------|
G|-----------------|-----------------|-----------------|-----------------|
D|(0)--------------|(0)--------------|(0)--------------|(0)--------------|
A|(0)--------------|(0)--------------|(0)--------------|(0)--------------|
D|(0)--------------|(0)--------------|(0)--------------|(0)--------------|


   1 + 2 + 3 + 4 +   1 + 2 + 3 + 4 +   1 + 2 + 3 + 4 +   1 + 2 + 3 + 4 +
E|-----------------|-----------------|-----------------|-----------------|
B|-----------------|-----------------|-----------------|-----------------|
G|-----------------|-----------------|-----------------|-----------------|
D|-5~--------------|(5)--------------|(5)--------------|(5)--------------|
A|-5~--------------|(5)--------------|(5)--------------|(5)--------------|
D|-5~--------------|(5)--------------|(5)--------------|(5)--------------|
 |
 |
 | 1 + 2 + 3 + 4 +   1 + 2 + 3 + 4 +   1 + 2 + 3 + 4 +   1 + 2 + 3 + 4 +
E|-----------------|-----------------|-----------------|-----------------|
B|-----------------|-----------------|-----------------|-----------------|
G|-----------------|-----------------|-----------------|-----------------|
D|-5~--------------|(5)--------------|(5)--------------|(5)--------------|
A|-5~--------------|(5)--------------|(5)--------------|(5)--------------|
D|-5~--------------|(5)--------------|(5)--------------|(5)--------------|


   1 + 2 + 3 + 4 +   1 + 2 + 3 + 4 +   1 + 2 + 3 + 4 +   1 + 2 + 3 + 4 +
E|-----------------|-----------------|-----------------|-----------------|
B|-7-7-7-5-5-5-8-8-|-8-5-5-5-7-7-5-5-|-7-7-7-5-5-5-8-8-|-8-5-5-5-7-7-5-5-|
G|-7-7-7-7-7-7-7-7-|-7-7-7-7-7-7-7-7-|-7-7-7-7-7-7-7-7-|-7-7-7-7-7-7-7-7-|
D|-----------------|-----------------|-----------------|-----------------|
A|-----------------|-----------------|-----------------|-----------------|
D|-----------------|-----------------|-----------------|-----------------|
 |
 |
 | 1 + 2 + 3 + 4 +   1 + 2 + 3 + 4 +   1 + 2 + 3 + 4 +   1 + 2 + 3 + 4 +
E|-----------------|-----------------|-----------------|-----------------|
B|-----------------|-----------------|-----------------|-----------------|
G|-----------------|-----------------|-----------------|-----------------|
D|-0~--------------|(0)--------------|(0)--------------|(0)--------------|
A|-0~--------------|(0)--------------|(0)--------------|(0)--------------|
D|-0~--------------|(0)--------------|(0)--------------|(0)--------------|


   1 + 2 + 3 + 4 +   1 + 2 + 3 + 4 +   1 + 2 + 3 + 4 +   1 + 2 + 3 + 4 +
E|-----------------|-----------------|-----------------|-----------------|
B|-7-7-7-5-5-5-8-8-|-8-5-5-5-7-7-5-5-|-7-7-------------|-----------------|
G|-7-7-7-7-7-7-7-7-|-7-7-7-7-7-7-7-7-|-7-7-------------|-----------------|
D|-----------------|-----------------|-----------------|---------x\x-----|
A|-----------------|-----------------|-----------------|---------x\x-----|
D|-----------------|-----------------|-----------------|---------x\x-----|
 |
 |
 | 1 + 2 + 3 + 4 +   1 + 2 + 3 + 4 +   1 + 2 + 3 + 4 +   1 + 2 + 3 + 4 +
E|-----------------|-----------------|-----------------|-----------------|
B|-----------------|-----------------|-----------------|-----------------|
G|-----------------|-----------------|-----------------|-----------------|
D|-5~--------------|(5)--------------|-5-5-------------|---------x\x-----|
A|-5~--------------|(5)--------------|-5-5-------------|---------x\x-----|
D|-5~--------------|(5)--------------|-5-5-------------|---------x\x-----|


   1 + 2 + 3 + 4 +   1 + 2 + 3 + 4 +   1 + 2 + 3 + 4 +   1 + 2 + 3 + 4 +
E|-----------------|-----------------|-----------------|-----------------|
B|---2h3---2h3---3-|---2h3---2h3---3-|---2h3---2h3---3-|---2h3---2h3---3-|
G|-----------------|-----------------|-----------------|-----------------|
D|-----------------|-----------------|-----------------|-----------------|
A|-----------------|-----------------|-----------------|-----------------|
D|-----------------|-----------------|-----------------|-----------------|
 |
 |
 | 1 + 2 + 3 + 4 +   1 + 2 + 3 + 4 +   1 + 2 + 3 + 4 +   1 + 2 + 3 + 4 +
E|-----------------|-----------------|-----------------|-----------------|
B|-----------------|-----------------|-----------------|-----------------|
G|-----------------|-----------------|-----------------|-----------------|
D|-0-0-0-0-0-------|-0-0-0-0-0-------|-5-5-5-5-5-------|-5-5-5-5-5-------|
A|-0-0-0-0-0-------|-0-0-0-0-0-------|-5-5-5-5-5-------|-5-5-5-5-5-------|
D|-0-0-0-0-0-------|-0-0-0-0-0-------|-5-5-5-5-5-------|-5-5-5-5-5-------|
   . . . . .         . . . . .         . . . . .         . . . . .


   1 + 2 + 3 + 4 +   1 + 2 + 3 + 4 +   1 + 2 + 3 + 4 +   1 + 2 + 3 + 4 +
E|-----------------|-----------------|-----------------|-----------------|
B|---2h3---2h3---3-|---2h3---2h3---3-|---2h3---2h3---3-|---2h3---2h3---3-|
G|-----------------|-----------------|-----------------|-----------------|
D|-----------------|-----------------|-----------------|-----------------|
A|-----------------|-----------------|-----------------|-----------------|
D|-----------------|-----------------|-----------------|-----------------|
 |
 |
 | 1 + 2 + 3 + 4 +   1 + 2 + 3 + 4 +   1 + 2 + 3 + 4 +   1 + 2 + 3 + 4 +
E|-----------------|-----------------|-----------------|-----------------|
B|-----------------|-----------------|-----------------|-----------------|
G|-----------------|-----------------|-----------------|-----------------|
D|-9-9-9-9-9-------|-9-9-9-9-9-------|-5-5-5-5-5-------|-5-5-5-5-5-5-5-5-|
A|-9-9-9-9-9-------|-9-9-9-9-9-------|-5-5-5-5-5-------|-5-5-5-5-5-5-5-5-|
D|-9-9-9-9-9-------|-9-9-9-9-9-------|-5-5-5-5-5-------|-5-5-5-5-5-5-5-5-|
   . . . . .         . . . . .         . . . . .         . . . .


Chorus (there are three guitar parts)


   1 + 2 + 3 + 4 +   1 + 2 + 3 + 4 +   1 + 2 + 3 + 4 +   1 + 2 + 3 + 4 +
E|-----------------|-----------------|-----------------|-----------------|
B|---2h3---2h3---3-|---2h3---2h3---3-|---2h3---2h3---3-|---2h3---2h3---3-|
G|-----------------|-----------------|-----------------|-----------------|
D|-----------------|-----------------|-----------------|-----------------|
A|-----------------|-----------------|-----------------|-----------------|
D|-----------------|-----------------|-----------------|-----------------|
 |
 |
 | 1 + 2 + 3 + 4 +   1 + 2 + 3 + 4 +   1 + 2 + 3 + 4 +   1 + 2 + 3 + 4 +
E|-----------------|-----------------|-----------------|-----------------|
B|-----------------|-----------------|-----------------|-----------------|
G|-----------------|-----------------|-----------------|-----------------|
D|-0-0-0-0-0-0-0-0-|-0-0-0-0-0-0-0-0-|-5-5-5-5-5-5-5-5-|-5-5-5-5-5-5-5-5-|
A|-0-0-0-0-0-0-0-0-|-0-0-0-0-0-0-0-0-|-5-5-5-5-5-5-5-5-|-5-5-5-5-5-5-5-5-|
D|-0-0-0-0-0-0-0-0-|-0-0-0-0-0-0-0-0-|-5-5-5-5-5-5-5-5-|-5-5-5-5-5-5-5-5-|
 |
 |
 | 1 + 2 + 3 + 4 +   1 + 2 + 3 + 4 +   1 + 2 + 3 + 4 +   1 + 2 + 3 + 4 +
E|-----------------|-----------------|-----------------|-----------------|
B|-7-7-7-5-5-5-8-8-|-8-5-5-5-7-7-5-5-|-7-7-7-5-5-5-8-8-|-8-5-5-5-7-7-5-5-|
G|-7-7-7-7-7-7-7-7-|-7-7-7-7-7-7-7-7-|-7-7-7-7-7-7-7-7-|-7-7-7-7-7-7-7-7-|
D|-----------------|-----------------|-----------------|-----------------|
A|-----------------|-----------------|-----------------|-----------------|
D|-----------------|-----------------|-----------------|-----------------|


   1 + 2 + 3 + 4 +   1 + 2 + 3 + 4 +   1 + 2 + 3 + 4 +   1 + 2 + 3 + 4 +
E|-----------------|-----------------|-----------------|-----------------|
B|---2h3---2h3---3-|---2h3---2h3---3-|-R---------------|-R---------------|
G|-----------------|-----------------|-----E-----------|-----E-----------|
D|-----------------|-----------------|---------S-------|---------S-------|
A|-----------------|-----------------|-------------T---|-------------T---|
D|-----------------|-----------------|-----------------|-----------------|
 |
 |
 | 1 + 2 + 3 + 4 +   1 + 2 + 3 + 4 +   1 + 2 + 3 + 4 +   1 + 2 + 3 + 4 +
E|-----------------|-----------------|-----------------|-----------------|
B|-----------------|-----------------|-----------------|-R---------------|
G|-----------------|-----------------|-----------------|-----E-----------|
D|-9-9-9-9-9-9-9-9-|-9-9-9-9-9-9-9-9-|-5---------------|---------S-------|
A|-9-9-9-9-9-9-9-9-|-9-9-9-9-9-9-9-9-|-5---------------|-------------T---|
D|-9-9-9-9-9-9-9-9-|-9-9-9-9-9-9-9-9-|-5---------------|-----------------|
 |
 |
 | 1 + 2 + 3 + 4 +   1 + 2 + 3 + 4 +   1 + 2 + 3 + 4 +   1 + 2 + 3 + 4 +
E|-----------------|-----------------|-----------------|-----------------|
B|-7-7-7-5-5-5-8-8-|-8-5-5-5-7-7-5-5-|-7---------------|-R---------------|
G|-7-7-7-7-7-7-7-7-|-7-7-7-7-7-7-7-7-|-7---------------|-----E-----------|
D|-----------------|-----------------|-----------------|---------S-------|
A|-----------------|-----------------|-----------------|-------------T---|
D|-----------------|-----------------|-----------------|-----------------|


Outro


   1 + 2 + 3 + 4 +
E|-----------------|
B|-----------------|
G|-----------------|
D|-2-0---0---0-0~--|
A|-2-0---0---0-0~--|
D|-2-0---0---0-0~--|
 |   .   .   .
 |
 | 1 + 2 + 3 + 4 + 
E|-----------------|
B|-----------------|
G|-----------------|
D|-2-0---0---0-0~--|
A|-2-0---0---0-0~--|
D|-2-0---0---0-0~--|
     .   .   . 


   1 + 2 + 3 + 4 +   1 + 2 + 3 + 4 +   1 + 2 + 3 + 4 +   1 + 2 + 3 + 4 +
E|-----------------|-----------------|-----------------|-----------------|
B|-7-7-7-5-5-5-8-8-|-8-5-5-5-7-7-5-5-|-7-7-7-5-5-5-8-8-|-8-5-5-5-7-7-5-5-|
G|-7-7-7-7-7-7-7-7-|-7-7-7-7-7-7-7-7-|-7-7-7-7-7-7-7-7-|-7-7-7-7-7-7-7-7-|
D|-----------------|-----------------|-----------------|-----------------|
A|-----------------|-----------------|-----------------|-----------------|
D|-----------------|-----------------|-----------------|-----------------|
 |
 |
 | 1 + 2 + 3 + 4 +   1 + 2 + 3 + 4 +   1 + 2 + 3 + 4 +   1 + 2 + 3 + 4 +
E|-----------------|-----------------|-----------------|-----------------|
B|-----------------|-----------------|-----------------|-----------------|
G|-----------------|-----------------|-----------------|-----------------|
D|(0)--------------|(0)--------------|(0)--------------|(0)--------------|
A|(0)--------------|(0)--------------|(0)--------------|(0)--------------|
D|(0)--------------|(0)--------------|(0)--------------|(0)--------------|


End On


   1 + 2 + 3 + 4 +
E|-----------------|
B|-7~--------------|
G|-7~--------------|
D|-----------------|
A|-----------------|
D|-----------------|
 |
 |
 | 1 + 2 + 3 + 4 + 
E|-----------------|
B|-----------------|
G|-----------------|
D|(0)--------------|
A|(0)--------------|
D|(0)--------------|


there you go, enjoy!
Related for Sugar Were Going Down tab