Song name
# A B C D E F G H I J K L M N O P Q R S T U V W X Y Z

Fall Out Boy - Ive Got A Dark Alley And A Bad Idea That Says You Should Shut Your Mouth Summer Song tab

I’ve Got a Dark Alley and a Bad Idea That Says You Should Shut Your Mouth (A Summer Song)
Fall Out Boy
From Under The Cork Tree

I found it easier to put the Add ons and that kind of stuff at the bottom, so you'll 
to look at that first. Sorry if its really confusing, but you guys are smart, you should be 
to figure it out.

Oh yeah, I got this from the book, because I got this and kinda figured that not too 
people would want to pay 20 bucks and buy this when someone just puts it up on this site. 
I switched it around a little bit, but I think it's still right.

Enjoy-

All Guitars Standard Tuning

Chords Used-
Gsus4-    3-x-0-0-1-3-|
G-        3-x-0-0-0-3-|
Fmaj7#11- 1-3-3-2-0-0-|
Am7-      x-0-2-0-1-0-|
C-        x-3-2-0-1-0-|
C/E-      0-3-2-0-1-3-|
Fadd9-    1-3-x-2-1-3-|
Am-       x-0-2-2-1-0-|
Asus2-    x-0-2-2-0-0-|
G5        3-x-0-0-3-x-|

Intro- Gsus4, G, Gsus4 G
 G                  C/E            Fadd9        C/E               Fadd9
Joke me something awful just like kisses on the necks of "best friends"
    C/E    Fad9        Gsus4          G
We're the kids who feel like dead ends
       C/E        Fadd9           C/E           Fadd9
And I want to be known for my hits, not just my misses
         C/E      Fadd9              Gsus4     G
I took a shot and didn't even come close

 Synth for guitar
| 0--0--0-----|
|-1--1--1--3--|
|-0--0--0--4--|
|-2--3-----5--| played when Patrick says “trust and love”
|-------------|
|-------------|
C/E (let ring?)
At trust and love and hope
(repeat Synth part)
And the poets are just kids who didn't make it

Repeat Synth part again

Guitar Break solo thing
|-0---------------------|
|---0h1-----------------|
|-----------------------|
|-------3-(3)/5---------|
|----------------5\3\2--|
|-----------------------|  then come in quietly with this- Gsus4
And never had it at all


Chorus- Guitar 3
 (play Add on- A 5 times, then Add on- B once) repeat twice for Chorus)
          Fmaj7#11          Am7
And the record won't stop skipping
           C                     G
And the lies just won't stop slipping
          C/E      Fadd9             Gsus4     G
And besides my reputations on the line
        Am            Fmaj7#11
We can fake it for the airwaves
               C         G
Force our smiles, baby, half dead


  (Play Add on- C starting on “everyone else around me”)

        C/E      Fadd9   Gsus4       G           (mini solo thing)
From comparing myself to everyone else around me

Gsus4  G               C/E         Fadd9                  C/E      Fadd9
      Please put the doctor on the phone 'cause I'm not making any sense
       C/E  Fadd9    Gsus4      G
Blame everyone but me for this mess
        C/E            Fadd9      C/E          Fadd9
And my back has been breaking from this heavy heart
    C/E    Fadd9     Gsus4
We never seemed so far
 C/E (during this, play Synth part)
I'm hopelessly hopeful, you're just hopeless enough
       mini solo part
But we never had it at all

  (repeat chorus, same as first one- Add on- A x5, Add on- B x1) all x2)
Gsus4     Fmaj7#11          Am7                   C                G
And the record won't stop skipping and the lies just won't stop slipping
            C/E    Fadd9             Gsus4   G
And besides my reputation's on the line
           Am           Fmaj7#11
We can fake it for the airwaves
              C           G
Force our smiles, baby, half dead
        C/E        Fadd9  Gsus4      C   (Add on- E till end, end on C)
From comparing myself to everyone else around me


Outro-
(Guitar 1 plays measures below, 2 plays chords, 3 plays Add on- E till end)
|-----------------------------------------------------------------------|
|-----------------------------------------------------------------------|
|-999999/10-10-10-10-10-10-12—12-12-12-12-12-12-12-12-12-12-12-12-12----|
|-xxxxxx-x--x--x--x--x--x--xx--xx-xx-xx-xx-xx-xx-xx-xx-xx-xx-xx-xx-xx---|
|-777777/8--8--8--8--8--8/-10--10-10-10-10-10-10-10-10-10-10-10-10-10---|
|-----------------------------------------------------------------------|
 Gsus4       G5   Gsus4
to everyone else around me
          G5   Gsus4
everyone else around me
          G5   Gsus4
everyone else around me

Ending measure (all guitars play chord at same time)-
Guitar 1
|-------|
|-------|
|--\5---|
|---x---|
|--\3---|
|-------|
Guitar 2 and 3 end on C-
|-x-|
|-1-|
|-0-|
|-2-|
|-3-|
|-x-|


Add on- A
|---------------------|
|---------------------|
|-(9)-7\5-(5)/9-9-9---|
|-(x)-x-x-(x)-x-x-x---|
|-(7)-5\3-(3)/7-7-7---|
|---------------------|

Add on- B
|---------------------|------------------|----------------------|
|---------------------|------------------|----------------------|
|-(9)-7\5-5-(5)/7-7-7-|-7-7-7-7-7-7-7/12-|-12-12-12-12-12\9-9-9-|
|-(x)-x-x-x-(x)-x-x-x-|-x-x-x-x-x-x-x-xx-|-xx-xx-xx-xx-xx-x-x-x-|
|-(7)-5\3-3-(3)/5-5-5-|-5-5-5-5-5-5-5/10-|-10-10-10-10-10\7-7-7-|
|---------------------|------------------|----------------------|

Add on- C
|------------------|-------------------------|
|------------------|-------------------------|
|-7---7---7-7-7/12-|-12-12-12-12-12-12-12-12-|
|-x---x---x-x-x-xx-|-xx-xx-xx-xx-xx-xx-xx-xx-|
|-5---5---5-5-5/10-|-10-10-10-10-10-10-10-10-|
|------------------|-------------------------|

Add on- D
|---------------------------------------------------------------------|
|---------------------------------------------------------------------|
|-999999/10-10-10-10-10-10-12—-12-12-12-12-12-12-12-12-12-12-12-12-12-|
|-xxxxxx-x--x--x--x--x--x--xx--xx-xx-xx-xx-xx-xx-xx-xx-xx-xx-xx-xx-xx-|
|-777777/8--8--8--8--8--8/-10--10-10-10-10-10-10-10-10-10-10-10-10-10-|
|---------------------------------------------------------------------|

Add on- E
|-0-------0-------0-------0-------0-------0-------3-------3---------|
|---0-1-----0-1-----0-1-----0-1-----0-1-----0-1-----0-1-3----0-1-3--|
|-------0-------0-------0-------0-------0-------0-------------------|
|-------------------------------------------------------------------|
|-------------------------------------------------------------------|
|-------------------------------------------------------------------|

The End

Peace
 mikko_9119
Tap to rate this tab
# A B C D E F G H I J K L M N O P Q R S T U V W X Y Z